The Beatles

The Beatles
Night Before (Bass tab)

#
From: Chan Kin Lok
The Night Before- The Beatles



The Night Before(Bass TAB)
[Intro]
--|-----------|-----------|------------|-----------|
--|--0--------|-0--0----2-|-3---3----2-|-3--3----4-|
-4|------0--4-|------0----|-------3----|------3----|
--|-----------|-----------|------------|-----------|

|-0---0-------|-0--0---1--|-2--2----1--|-2--2------|
|-------0---4-|------0----|------2-----|------2----|
|-------------|-----------|------------|-----------|
|-------------|-----------|------------|-----------|





1. We said our goodbyes-
(ah, the night before.)
|----------------|-------------|-------------|-----------------|
|--0-----0-------|-------------|--------0----|-----------2-----|
|----------0-----|--3---3------|-------------|-----------------|
|----------------|--------3----|--3---3------|----3----3-------|

Love was in your eyes-
(ah, the night before.)
|----------------|-------------|-------------|-----------------|
|--0-----0-------|-------------|--------0----|-----------2-----|
|----------0-----|--3---3------|-------------|-----------------|
|----------------|--------3----|--3---3------|----3----3-------|

Now today I find you have changed your mind.
|----------------|-------------|-------------|-----------------|
|----------------|-------0-----|-------------|---------------0-|
|--2-----2-------|-------------|--2---2------|-----------------|
|----------2-----|--3--3-------|--------2----|--------3-----3--|

Treat me like you did the night before.
|----------------|-------------|--------------------|-----------0------|
|--0-----0-------|-----------0-|---------0-----0----|----3----3--------|
|----------0-----|-------------|-----------------0--|------------------|
|----------------|-----3---3---|--------------------|------------------|





2. Were you telling lies-
(ah, the night before?)
|----------------|-------------|-------------|-----------------|
|--0-----0-------|-------------|--------0----|-----------2-----|
|----------0-----|--3---3------|-------------|-----------------|
|----------------|--------3----|--3---3------|----3----3-------|

Was I so unwise-
(ah, the night before?)
|--------------|-------------|-------------|--------------------|
|--0----0------|-------------|--------0----|--------------2-----|
|---------0----|--3---3------|-------------|--------------------|
|--------------|--------3----|--3---3------|-------3----3-------|

When I held you near you were so sincere.
|----------------|-------------|-------------|-----------------|
|----------------|-------0-----|-------------|---------------0-|
|--2-----2-------|-------------|--2---2------|-----------------|
|----------2-----|--3--3-------|--------2----|--------3-----3--|

Treat me like you did the night before.
|----------------|-------------|--------------------|--------------------|
|--0-----0-------|-----------0-|---------0-----0----|---------0-----0----|
|----------0-----|-------------|-----------------0--|-----------------0--|
|----------------|-----3---3---|--------------------|--------------------|




3. Last night is a night I will remember you by.
|---2------2-------|-------------|-0----0--------|--0---0-----------|
|-------------2----|--0---0------|---------0-----|---------0--------|
|------------------|--------0----|---------------|------------------|
|------------------|-------------|---------------|------------------|

When I think of things we did it makes me wanna cry.
|----------------|--------------|----2----2---2---2-|-2---2---2-2---2---|
|----------------|--2------2----|-------------------|-------------------|
|--2----2--------|------------2-|-------------------|-------------------|
|----------2-----|--------------|-------------------|-------------------|




4. We said our goodbyes-
(ah, the night before.)
|----------------|-------------|-------------|-----------------|
|--0-----0-------|-------------|--------0----|-----------2-----|
|----------0-----|--3---3------|-------------|-----------------|
|----------------|--------3----|--3---3------|----3----3-------|

Love was in your eyes-
(ah, the night before.)
|----------------|-------------|-------------|-----------------|
|--0-----0-------|-------------|--------0----|-----------2-----|
|----------0-----|--3---3------|-------------|-----------------|
|----------------|--------3----|--3---3------|----3----3-------|

Now today I find you have changed your mind.
|----------------|-------------|-------------|-----------------|
|----------------|-------0-----|-------------|---------------0-|
|--2-----2-------|-------------|--2---2------|-----------------|
|----------2-----|--3--3-------|--------2----|--------3-----3--|

Treat me like you did the night before. (Yes)
|----------------|-------------|--------------------|-----------0------|
|--0-----0-------|-----------0-|---------0-----0----|----3----3--------|
|----------0-----|-------------|-----------------0--|------------------|
|----------------|-----3---3---|--------------------|------------------|



[Guitar solo]
|----------------|-------------|-------------|-----------------|
|--0-----0-------|-------------|--------0----|-----------2-----|
|----------0-----|--3---3------|-------------|-----------------|
|----------------|--------3----|--3---3------|----3----3-------|

|----------------|-------------|-------------|-----------------|
|--0-----0-------|-------------|--------0----|-----------2-----|
|----------0-----|--3---3------|-------------|-----------------|
|----------------|--------3----|--3---3------|----3----3-------|

When I held you near you were so sincere.
|----------------|-------------|-------------|-----------------|
|----------------|-------0-----|-------------|---------------0-|
|--2-----2-------|-------------|--2---2------|-----------------|
|----------2-----|--3--3-------|--------2----|--------3-----3--|

Treat me like you did the night before.
|----------------|-------------|--------------------|--------------------|
|--0-----0-------|-----------0-|---------0-----0----|---------0-----0----|
|----------0-----|-------------|-----------------0--|-----------------0--|
|----------------|-----3---3---|--------------------|--------------------|




5. Last night is a night I will remember you by.
|---2------2-------|-------------|-0----0--------|--0---0-----------|
|-------------2----|--0---0------|---------0-----|---------0--------|
|------------------|--------0----|---------------|------------------|
|------------------|-------------|---------------|------------------|

When I think of things we did it makes me wanna cry.
|----------------|--------------|----2----2---2---2-|-2---2---2-2---2---|
|----------------|--2------2----|-------------------|-------------------|
|--2----2--------|------------2-|-------------------|-------------------|
|----------2-----|--------------|-------------------|-------------------|




6. Were you telling lies-
(ah, the night before?)
|----------------|-------------|-------------|-----------------|
|--0-----0-------|-------------|--------0----|-----------2-----|
|----------0-----|--3---3------|-------------|-----------------|
|----------------|--------3----|--3---3------|----3----3-------|

Was I so unwise-
(ah, the night before?)
|--------------|-------------|-------------|--------------------|
|--0----0------|-------------|--------0----|--------------2-----|
|---------0----|--3---3------|-------------|--------------------|
|--------------|--------3----|--3---3------|-------3----3-------|

When I held you near you were so sincere.
|----------------|-------------|-------------|-----------------|
|----------------|-------0-----|-------------|---------------0-|
|--2-----2-------|-------------|--2---2------|-----------------|
|----------2-----|--3--3-------|--------2----|--------3-----3--|

Treat me like you did the night before. like the night before.
|----------------|-------------|--------------------|------------------|--------------------|
|--0-----0-------|-----------0-|---------0-----0----|--3-------3---3---|----0-----0---------|
|----------0-----|-------------|-----------------0--|------------------|-------------0----0-|
|----------------|-----3---3---|--------------------|------------------|--------------------|


|----------------|
|--0-------------|
|----------------|
|----------------|



(from Help!)
(sent by Chan Kin Lok at c_kin_lok@hotmail.com)

OptimusPrime

Submitted by OptimusPrime at Sun 30 Oct, 2005 9:22 am

Author: ?
Composer: ?
Publisher: ?
Language: English

Reactions

CommonCrawl [Bot]

Follow Muzikum