The Beatles

The Beatles
Long, Long, Long (Guitar chord)

Long, long, long
The Beatles

Submitted By Tiny Man
kellymark@rogers.com

Open
Capo 3rd Fret


Intro Riff
E---------------------------------------------0-0-0-0-0-0--
B-----------------------------------------3---2-2-2-2-2-2--
G-----------h--------------------h-----2------2-2-2-2-2-2--
D-------h--0-2-------2-------h--0-2-0---------2-2-2-2-2-2--
A---h--0-2--------0------h--0-2---------------0-0-0-0-0-0--
E--0-3---------3--------0-3--------------------------------


Gm Bb Gm F C Open
[Intro] Em G Em D A Capo 3rd Fret


Bb Am Gm F
G F#m Em D
It's been a long long __ long __time
Riff Em D
E-------------------2--
B-------------------3--
G----------h-----2-----
D------h--0-2-0--------
A--h--0-2--------------
E-0-3------------------

C Gm F C Gm F C C7
A Em D A Em D A A7
How could I ever have lost you _____When I loved you ______


Bb Am Gm F
G F#m Em D
It took a long __long___long __time
Riff Em D
E-------------------2--
B-------------------3--
G----------h-----2-----
D------h--0-2-0--------
A--h--0-2--------------
E-0-3------------------

C Gm F C Gm F C C7
A Em D A Em D A A7
Now I'm so happy I found you ______How I love you ______


[Bridge]
Bb F C Gm Bb F C Gm Bb C
G D A Em G D A Em G A
So many tears I was searching _______So many tears I was wasting oh ___oh____

Bb Am Gm F
G F#m Em D
Now I can see ___you ____be ___you
Riff Em D
E-------------------2--
B-------------------3--
G----------h-----2-----
D------h--0-2-0--------
A--h--0-2--------------
E-0-3------------------

C Gm F C Gm F C
A Em D A Em D A
How can I ever misplace you _____how I want you
Gm F C Gm F Bb Gm F C
Em D A Em D G Em D A
Oh I __ love you _______you know that I need you __Ooh I _____love you ____

C
[Ending Solo] A

OptimusPrime

Submitted by OptimusPrime at Sun 30 Oct, 2005 9:22 am

Author: ?
Composer: ?
Publisher: ?
Language: English

Reactions

CommonCrawl [Bot]

Follow Muzikum