The Beatles

The Beatles
Come Together 5 (Guitar chord)

| This is the orginal Come Together song, made by The Beatles |
| This song is also copyrighted to Chris (c) Copyright 2004 |
| Hope you enjoy this chord. Hope you enjoy playing guitar ;) |

Come Together:

The intro/riff of the song is:

E ---------------------------------------------------------------------------
B ---------------------------------------------------------------------------
G ---------------------------------------5-----------------------------------
D -------------------------5------7------------------7-----------------------
A -------0-----0-------------------------------------------------------------
E ---------------------------------------------------------------------------

__________________________________________________________________________________________________

The chords is:

The Am:

E -----------------
B -1---------------
G ------2----------
D ------2----------
A -----------------
E XXXXXXXXXXXXXXXXX

The E7:

E -----------------
B -----------------
G -1---------------
D -----------------
A ------2----------
E XXXXXXXXXXXXXXXXX

The E7sus:

E -----------------
B -----------------
G ------2----------
D -----------------
A ------2----------
E -----------------

The D7:

E ------2----------
B -1---------------
G ------2----------
D -----------------
A XXXXXXXXXXXXXXXXX
E XXXXXXXXXXXXXXXXX

The D:

E ------2----------
B -----------3-----
G ------2----------
D -----------------
A XXXXXXXXXXXXXXXXX
E XXXXXXXXXXXXXXXXX

The F#m:

E ------2----------
B ------2----------
G ------2----------
D ------2---------4
A ------2---------4
E ------2----------

___________________________________________________________________________________________________

The Beatles - Come Together:

E ---------------------------------------------------------------------------
B ---------------------------------------------------------------------------
G ---------------------------------------5-----------------------------------
D -------------------------5------7------------------7-----------------------
A -------0-----0-------------------------------------------------------------
E ---------------------------------------------------------------------------

Am
Here come old flat top He come grooving up slowly


He got Joo Joo eyeball He one holy roller

E7
He got Hair down to his knee

D7
Got to be a joker, he just do what he please.

E ---------------------------------------------------------------------------
B ---------------------------------------------------------------------------
G ---------------------------------------5-----------------------------------
D -------------------------5------7------------------7-----------------------
A -------0-----0-------------------------------------------------------------
E ---------------------------------------------------------------------------

Am
He wear no shoe shine he got toe jam football


He got monkey finger he shoot co-ca cola

E7
He say I know you, you know me.

D7
One thing I can tell you is you got to be free

F#m D E7sus|Am
Come Together, Right now, over me

E ---------------------------------------------------------------------------
B ---------------------------------------------------------------------------
G ---------------------------------------5-----------------------------------
D -------------------------5------7------------------7-----------------------
A -------0-----0-------------------------------------------------------------
E ---------------------------------------------------------------------------
__________________________________________________________________________________________-

The rest of the song, is just the same as above!


-Chris

OptimusPrime

Submitted by OptimusPrime at Sun 30 Oct, 2005 9:22 am

Author: ?
Composer: ?
Publisher: ?
Language: English

Reactions

CommonCrawl [Bot]

Follow Muzikum