The Beatles

The Beatles
Lady Madonna (acous) (Guitar tab)

Lady Madonna

A D A D A D
e---0----0----2----2------0--------0------2-----2-----0------0------2-----2---
b---2----2----3----3------2--------2------3-----3-----2------2------3-----3---
g---2----2----2----2------2--------2------2-----2-----2------2------2-----2---
d------2----0------------------2-------0------------------2------0------------
a-0--------------0-----0----------------------0-----0------------------0------
e-----------------------------------------------------------------------------
Lady Madonna children at your feet wonder how you manage to

F G A A D A D
e----1-----3-----0-----0-------0-----0-----2-----2-----0------0------2------2---
b----1-----0-----2-----2-------2-----2-----3-----3-----2------2------3------3---
g----2-----0-----2-----2-------2-----2-----2-----2-----2------2------2------2---
d-3-----------------2-------------2-----0------------------2------0-------------
a-------------0-------------0-----------------0------0-------------------0------
e-------3-----------------------------------------------------------------------
make ends meet who finds the money when you pay the rent


A D F G A
e----0-----0-------2-----2--------1-----3------0------0---------
b----2-----2-------3-----3--------1-----0------2------2---------
g----2-----2-------2-----2--------2-----0------2------2---------
d-------2-------0--------------3-------------------2------------
a--0------------------0---------------------0-------------------
e------------------------------------3--------------------------
did you think that money was heaven sent

Dm G C
e----1------1------1-------1--------3------3------3-----3-------0-----0-----0--
b----3------3------3-------3--------0------0------0-----0-------1-----1-----1--
g----2------2------2-------2--------0------0------0-----0-------0-----0-----0--
d-0-------------0-----------------------0------------0-------------2-----------
a--------0--------------0------------------------------------3-----------3-----
e--------------------------------3-------------3-------------------------------
friday night arrives without a suit case sunday morning

C Am Dm
e-----0--------------0-----0-----0-----0--------1-------1------1---------1-----
b-----1--------------1-----1-----1-----1--------3-------3------3---------3-----
g-----0--------------2-----2-----2-----2--------2-------2------2---------2-----
d--2----------------------------------------0---------------0------------------
a-----------------0-----------0----------------------0---------------0---------
e-----------------------0-----------0------------------------------------------
creeping like a nun monday's child has learned to tie

G7 C Dm6 Esus4 E
e-------1-----1-----1------1----0---1-----------0--------------
b-------0-----0-----0------0----1---0-----------0--------------
g-------0-----0-----0------0----0---2-----------2----1---------
d----------0------------0-----------0--------------------------
a-------------------------------3---------------2----2---------
e----3-----------3------------------------------0----0---------
his bootlace see how they'll run
--------------------------------------------------------------------
m.vuijst
arr.P.J. Mulder

OptimusPrime

Submitted by OptimusPrime at Sun 30 Oct, 2005 9:22 am

Author: ?
Composer: ?
Publisher: ?
Language: English

Reactions

CommonCrawl [Bot]

Follow Muzikum