The Beatles

The Beatles
Yesterday Picking (Guitar tab)

THe Beatles
Yesterday
Acoustic Guitar
Arrangement Serge Messu

E||-----------------------0--|--------0--2--4--5--7--8--|
B||--3p-1--1-----------1-----|--------------3-----6-----|
G||-----------0-----0--------|--------------4-----7-----|
D||--------2-----------------|-----4--------------6-----|
A||--3-----------3-----------|--2-----------------------|
E||--------------------------|--------------0-----------|



--7-----------5-----------|--------5-----3-----0-----|
-----------5--------------|--------------3--6-----3--|
--------5--------5-----5--|-----5-----5--4-----------|
-----7--------7-----5-----|--3-----------5-----------|
--0-----------------------|--------------------------|
--------------------------|--------------------3-----|



--1--------0--0-----------|--------0-----------------|
--1-----1-----------3-----|--1-----------3-----------|
--2--0-----------0-----0--|-----2-----0-----2-----2--|
--------------------------|--------------------0-----|
--3-----------3-----2-----|--0-----------------------|
--------------------------|--------3-----2-----------|



-----------0--0-------------||--------------|--0-----------0-----------|
--1--------------1----------||--------1-----|-----------0-----------3--|
--------2---------------0--*||-----0-----0--|--------2-----------1-----|
--------------------0p2----*||--------------|-----4-----------3--------|
-----3--------3-------------||--3-----------|--2-----------1-----------|
--1-------------------------||--------------|--------------------------|



--5----7----8-------------|--7--------5--3-----5-----|
--5----5----10----12--10--|-----6--------3-----------|
--5----5----9-------------|--------5-----4--4-----4--|
-------5----10------------|--0-----------5-----------|
--0---------8-------------|--------------------------|
--------------------------|--------------------------|



--0---------------------0--|--0-----------0-----------|
---------------------1-----|-----------0-----------3--|
-----0------0-----0--------|--------2-----------1-----|
--------0p2----------------|-----4-----------3--------|
--3------------3-----------|--2-----------1-----------|
---------------------------|--------------------------|



--5----7----8-------------|--7--------5--3----7----|--8----3----1----0----|
--5----5----10----12--10--|-----6--------3---------|--8-------------------|
--5----5----9-------------|--------5-----4---------|--9-------------------|
-------5----10------------|--0-----------5---------|----------------------|
--0---------8-------------|------------------------|-------2----0---------|
--------------------------|------------------------|--8--------------3----|



-----------------------0--|--------0--2--4--5--7--8--|
--3p-1--1-----------1-----|--------------3-----6-----|
-----------0-----0--------|--------------4-----7-----|
--------2-----------------|-----4--------------6-----|
--3-----------3-----------|--2-----------------------|
--------------------------|--------------0-----------|



--7-----------5-----------|--------5-----3-----0-----|
-----------5--------------|--------------3--6-----3--|
--------5--------5-----5--|-----5-----5--4-----------|
-----7--------7-----5-----|--3-----------5-----------|
--0-----------------------|--------------------------|
--------------------------|--------------------3-----|



--1--------0--0-----------|--------0-----------------|
--1-----1-----------3-----|--1-----------3-----------|
--2--0-----------0-----0--|-----2-----0-----2-----2--|
--------------------------|--------------------0-----|
--3-----------3-----2-----|--0-----------------------|
--------------------------|--------3-----2-----------|



-----------0--0------------|-----------------------0--|
--1--------------1---------|--3p-1--1-----------1-----|
--------2---------------0--|-----------0-----0--------|
--------------------0p2----|--------2-----------------|
-----3--------3------------|--3-----------3-----------|
--1------------------------|--------------------------|



--------0--2--4--5--7--8--|--7-----------5-----------|
--------------3-----6-----|-----------5--------------|
--------------4-----7-----|--------5--------5-----5--|
-----4--------------6-----|-----7--------7-----5-----|
--2-----------------------|--0-----------------------|
--------------0-----------|--------------------------|



--------5-----3-----0-----|--1--------0--0-----------|
--------------3--6-----3--|--1-----1-----------3-----|
-----5-----5--4-----------|--2--0-----------0-----0--|
--3-----------5-----------|--------------------------|
--------------------------|--3-----------3-----2-----|
--------------------3-----|--------------------------|



--------0-----------------|--1--------0--0--------|--8-----12----10----------|
--1-----------3-----------|-----------------------|--10----------10----10----|
-----2-----0-----2-----2--|--------2--------------|--9-----------11----------|
--------------------0-----|-----------------------|--------------------------|
--0-----------------------|--1--3--------3--------|--------------------------|
--------3-----2-----------|-----------------------|--------------------------|



--8-----12----12--------||
--10----------12--------||
--10----------12--------||
--------------10--------||
------------------------||
------------------------||

OptimusPrime

Submitted by OptimusPrime at Sun 30 Oct, 2005 9:22 am

Author: ?
Composer: ?
Publisher: ?
Language: English

Reactions

CommonCrawl [Bot]

Follow Muzikum