The Beatles

The Beatles
I Want You (she's So Heavy) (Guitar tab)

I want you
The Beatles

Gtr. 1

e|----1-------1-------1-----------1-------1-|
B|---3-3-----3-3-----3-----------3-3-----3--|
G|--2---2---2---2---2-----------2---2---2---|
D|-0-----0-3-----3-2------------------------|
A|-----------------------3-2-1--------0-----|
E|------------------------------------------|
| |
| Gtr. 2 |
| |
e|----------------------12-—15fb-pb15--12-17|
B|--------------14qb------15---------15-----|
G|--------/10/12-----15---------------------|
D|------------------------------------------|
A|------------------------------------------|
D|------------------------------------------|

Gtr. 1

e|------------------------------------------|
B|------------------------------------------|
G|----5—7fb-pb7p5-------5-7-7fb-pb7-5---7p5-|
D|--7-------------7—--7---------------7-----|
A|------------------------------------------|
E|------------------------------------------|

e|------------------------------------------|
B|------------------------------------------|
G|---5—7~~~-pb7p5-------5-7-7fb-7-5---5-----|
D|--7-------------7----7------------7-------|
A|------------------------------------------|
E|------------------------------------------|

e|------------------------------------------|
B|------------------------------------------|
G|------------------------------------------|
D|--7-5---5-7-5-----------------------------|
A|------7-------7-5-------------------------|
E|------------------8-5---------------------|

e|------------------------------------------|
B|---6-8fb-----6-----6-8-8fb-8-6—--6-pb8p6--|
G|--7----------6----7------------7--------7-|
D|----------0-0-----------------------------|
A|------------------------------------------|
E|------------------------------------------|

e|------------------------------------------|
B|----6-8~~~~---6-8-8qb-8-6-6---------------|
G|--7---7~~~~-7------------7—7-5-5-7-5------|
D|------------------------------7-----------|
A|-------------------------------------5-6-7|
E|------------------------------------------|

e|----------------------------------------------|
B|--6-6-6-6--6-6-6---6-6-6-6--6-6-6--6-6-6-6-6-6|
G|--7-7-7-7--7-7-7---7-7-7-7--7-7-7--7-7-7-7-7-7|
D|--6-6-6-6--6-6-6---6-6-6-6--6-6-6--6-6-6-6-6-6|
A|--7-7-7-7--7-7-7---7-7-7-7--7-7-7--7-7-7-7-7-7|
E|----------------------------------------------|


e|------------------------------------------|
B|------------------------------------------|
G|----5—7fb-pb7p5-------5-7-7fb-pb7-5---7p5-|
D|--7-------------7—--7---------------7-----|
A|------------------------------------------|
E|------------------------------------------|

e|------------------------------------------|
B|------------------------------------------|
G|---5—7~~~-pb7p5-------5-7-7fb-7-5---5-----|
D|--7-------------7----7------------7-------|
A|------------------------------------------|
E|------------------------------------------|

e|------------------------------------------|
B|------------------------------------------|
G|------------------------------------------|
D|--7-5---5-7-5-----------------------------|
A|------7-------7-5-------------------------|
E|------------------8-5---------------------|

e|------------------------------------------|
B|---6-8fb-----6-----6-8-8fb-8-6—--6-pb8p6--|
G|--7----------6----7------------7--------7-|
D|----------0-0-----------------------------|
A|------------------------------------------|
E|------------------------------------------|

e|------------------------------------------|
B|----6-8~~~~---6-8-8qb-8-6-6---------------|
G|--7---7~~~~-7------------7—7-5-5-7-5------|
D|------------------------------7-----------|
A|-------------------------------------5-6-7|
E|------------------------------------------|

e|----------------------------------------------|
B|--6-6-6-6--6-6-6---6-6-6-6--6-6-6--6-6-6-6-6-6|
G|--7-7-7-7--7-7-7---7-7-7-7--7-7-7--7-7-7-7-7-7|
D|--6-6-6-6--6-6-6---6-6-6-6--6-6-6--6-6-6-6-6-6|
A|--7-7-7-7--7-7-7---7-7-7-7--7-7-7--7-7-7-7-7-7|
E|----------------------------------------------|

e|----1-------1-------1----------1-------1--|
B|---3-3-----3-3-----3----------3-3-----3-3-|
G|--2---2---2---2---2----------2---2---2---2|
D|-0-----0-3-----3-2------------------------|
A|-----------------------3-2-1-------0------|
E|------------------------------------------|

e|----1-------1-------1----------1-------1--|
B|---3-3-----3-3-----3----------3-3-----3---|
G|--2---2---2---2---2----------2---2---2----|
D|-0-----0-3-----3-2------------------------|
A|-----------------------3-2-1-------0------|
E|------------------------------------------|

e|------------------------------------------|
B|------------------------------------------|
G|----5—7fb-pb7p5-------5-7-7fb-pb7-5---7p5-|
D|--7-------------7—--7---------------7-----|
A|------------------------------------------|
E|------------------------------------------|

e|------------------------------------------|
B|------------------------------------------|
G|---5—7~~~-pb7p5-------5-7-7fb-7-5---5-----|
D|--7-------------7----7------------7-------|
A|------------------------------------------|
E|------------------------------------------|

e|------------------------------------------|
B|------------------------------------------|
G|------------------------------------------|
D|--7-5---5-7-5-----------------------------|
A|------7-------7-5-------------------------|
E|------------------8-5---------------------|

e|------------------------------------------|
B|---6-8fb-----6-----6-8-8fb-8-6—--6-pb8p6--|
G|--7----------6----7------------7--------7-|
D|----------0-0-----------------------------|
A|------------------------------------------|
E|------------------------------------------|

e|------------------------------------------|
B|----6-8~~~~---6-8-8qb-8-6-6---------------|
G|--7---7~~~~-7------------7—7-5-5-7-5------|
D|------------------------------7-----------|
A|-------------------------------------5-6-7|
E|------------------------------------------|

e|----------------------------------------------|
B|--6-6-6-6--6-6-6---6-6-6-6--6-6-6--6-6-6-6-6-6|
G|--7-7-7-7--7-7-7---7-7-7-7--7-7-7--7-7-7-7-7-7|
D|--6-6-6-6--6-6-6---6-6-6-6--6-6-6--6-6-6-6-6-6|
A|--7-7-7-7--7-7-7---7-7-7-7--7-7-7--7-7-7-7-7-7|
E|----------------------------------------------|

e|----1-------1-------1----------1-------1--|
B|---3-3-----3-3-----3----------3-3-----3-3-|
G|--2---2---2---2---2----------2---2---2---2|
D|-0-----0-3-----3-2------------------------|
A|-----------------------3-2-1-------0------|
E|------------------------------------------|

e|----1-------1-------1----------1-------1--|
B|---3-3-----3-3-----3----------3-3-----3---|
G|--2---2---2---2---2----------2---2---2----|
D|-0-----0-3-----3-2------------------------|
A|-----------------------3-2-1-------0------|
E|------------------------------------------|

e|------------------------------------------|
B|------------------------------------------|
G|----5—7fb-pb7p5-------5-7-7fb-pb7-5---7p5-|
D|--7-------------7—--7---------------7-----|
A|------------------------------------------|
E|------------------------------------------|

e|------------------------------------------|
B|------------------------------------------|
G|---5—7~~~-pb7p5-------5-7-7fb-7-5---5-----|
D|--7-------------7----7------------7-------|
A|------------------------------------------|
E|------------------------------------------|

e|------------------------------------------|
B|------------------------------------------|
G|------------------------------------------|
D|--7-5---5-7-5-----------------------------|
A|------7-------7-5-------------------------|
E|------------------8-5---------------------|

e|------------------------------------------|
B|---6-8fb-----6-----6-8-8fb-8-6—--6-pb8p6--|
G|--7----------6----7------------7--------7-|
D|----------0-0-----------------------------|
A|------------------------------------------|
E|------------------------------------------|

e|------------------------------------------|
B|----6-8~~~~---6-8-8qb-8-6-6---------------|
G|--7---7~~~~-7------------7—7-5-5-7-5------|
D|------------------------------7-----------|
A|-------------------------------------5-6-7|
E|------------------------------------------|

e|----------------------------------------------|
B|--6-6-6-6--6-6-6---6-6-6-6--6-6-6--6-6-6-6-6-6|
G|--7-7-7-7--7-7-7---7-7-7-7--7-7-7--7-7-7-7-7-7|
D|--6-6-6-6--6-6-6---6-6-6-6--6-6-6--6-6-6-6-6-6|
A|--7-7-7-7--7-7-7---7-7-7-7--7-7-7--7-7-7-7-7-7|
E|----------------------------------------------|

Gtr. 1
e|----1-------1-------1----------1-------1--|
B|---3-3-----3-3-----3----------3-3-----3-3-|
G|--2---2---2---2---2----------2---2---2---2|
D|-0-----0-3-----3-2------------------------|
A|-----------------------3-2-1-------0------|
E|------------------------------------------|
| |
| Gtr. 2 |
e|------------------------------------------|
B|------------------------------------------|
G|------------------------------------------|
D|-0-—2----3-/5--7----2---------------------|
A|-----------------------3-2-1---3-5-0------|
D|------------------------------------------|


Gtr. 1
e|----1-------1-------1----------1-------1--|
B|---3-3-----3-3-----3----------3-3-----3-3-|
G|--2---2---2---2---2----------2---2---2---2|
D|-0-----0-3-----3-2------------------------|
A|-----------------------3-2-1-------0------|
E|------------------------------------------|
| |
| Gtr. 2 |
e|------------------------------------------|
B|------------------------------------------|
G|------------------------------------------|
D|----------—-------------------------------|
A|-----------------------3-2-1---3-5-0------|
D|-0--2----3--5--7----2-----------------3-2-|

Repeat until fade out

OptimusPrime

Submitted by OptimusPrime at Sun 30 Oct, 2005 9:22 am

Author: ?
Composer: ?
Publisher: ?
Language: English

Reactions

CommonCrawl [Bot]

Follow Muzikum