The Beatles

The Beatles
And I Love Her 03 (Guitar tab)

The Beatles-1964-A Hard Day's Night-And I Love Her




The Beatles
1964-A Hard Day's Night
And I Love Her
Transcribed by Daniel Ocon

Rhy. 1

E-------------------------------------------------------------------------
B------------3---3--3---3--3--3---3--3-------------1---1--1---1--1--1-----
G------------2---2--2---2--2--2---2--2-------------2---2--2---2--2--2-----
D---0-3-2-0-------------------------------0-3-2-0-------------------------
A-------------------------------------------------------------------------
E-------------------------------------------------------------------------


Rhy. 2

E-------------------------------------------------------------------------
B---1--1------------------------------1---1--1---1---3--3---3--3--3-------
G---2--2------------------------------2---2--2---2---2--2---2--2--2-------
D----------------------------0-3-2-0--------------------------------------
A-------------------------------------------------------------------------
E-------------------------------------------------------------------------


E-------------------------------------------------------------------------
B---1--1---1--1--1---3--3---3--3--3---1--1---1--1--1---3--3---3--3--3-----
G---2--2---2--2--2---2--2---2--2--2---2--2---2--2--2---2--2---2--2--2-----
D-------------------------------------------------------------------------
A-------------------------------------------------------------------------
E-------------------------------------------------------------------------


E---3--3---3--3--3--------------------------------------------------------
B---3--3---3--3--3---3--3---3--3--3---1--1---3--3--3----------------------
G--------------------2--2---2--2--2---2--2---2--2--2----------------------
D-------------------------------------------------------------------------
A-------------------------------------------------------------------------
E-------------------------------------------------------------------------

Rhy. 3

E----------10-------------------------------------------------------------
B-------------10----------------------------------------------------------
G------10-----------------------------------------------------------------
D---12--------------------------------------------------------------------
A-------------------------------------------------------------------------
E-------------------------------------------------------------------------

Play Rhy. 3 sixteen times

Rhy. 4

E-------------------------------------------------------------------------
B-------------------------------------------------------------------------
G---7--7--7--7--7----5--5--5--5--5----------------------------------------
D-------------------------------------------------------------------------
A---5--5--5--5--5----3--3--3--3--3----------------------------------------
E-------------------------------------------------------------------------

Play Rhy. 4 three times

Rhy. 5

E-------------------------------------------------------------------------
B-------------------1--1--1-----------1--1--1--1--------------------------
G---5--5--5--5--5---0--0--0-----------0--0--0--0--------------------------
D-------------------2--2--2--0-3-2-0--------------------------------------
A---3--3--3--3--3---3--3--3-----------------------------------------------
E-------------------------------------------------------------------------

Play Rhy. 3 sixteen times

Solo

E----------------------------sl----sl--------------sl---------------------
B------------6-4-7----------4--6--6--4----------6-6--4-7----7-4-----------
G--------3-4------------3-4-----------------3-4-----------------4--sl-----
D------6--------------6-------------------6-----------------------6--8--6-
A-------------------------------------------------------------------------
E---4---------------------------------------------------------------------


E-------------------------------------------------------------------------
B-------------------------------------------------------------------------
G-------------------------------------------------------------------------
D--------sl---8-----------------------------------------------------------
A---4-4-4--6-------4-1------sl--------------------------------------------
E----------------------4-2-2--4-------------------------------------------

Play Rhy. 3 sixteen times

Rhy. 6

E-------------------------------------------------------------------------
B-------------4---4--4---4--4--4---4---4----------------------------------
G-------------3---3--3---3--3--3---3---3----------------------------------
D---1-4-3-1---1---1--1---1--1--1---1---1----------------------------------
A-------------------------------------------------------------------------
E-------------------------------------------------------------------------

Play Rhy. 6 three times

Fill-in 1

E-------------------------------------------------------------------------
B---------4---------------------------------------------------------------
G---------3---------------------------------------------------------------
D---1-4-3-1---------------------------------------------------------------
A-------------------------------------------------------------------------
E-------------------------------------------------------------------------

OptimusPrime

Submitted by OptimusPrime at Sun 30 Oct, 2005 9:22 am

Author: ?
Composer: ?
Publisher: ?
Language: English

Reactions

CommonCrawl [Bot]

Follow Muzikum