The Beatles

The Beatles
Elenor Rigby (Guitar tab)

E||--0--------0--2--3--5--|------3----2----0----|---------------------|
B||-----------------------|---------------------|--0------------------|
G||-----------------------|---------------------|-----2--0------------|
D||-----------------------|---------------------|---------------------|
A||-----------------------|---------------------|---------------------|
E||-----------------------|---------------------|---------------------|



-------------------||------------------------|-------------------------|
-------------------||---------0--------------|--------0--3----2--0--1--|
------------------*||*--0--2-----0-----------|--0--2-------------------|
------------------*||*----------------2------|-------------------------|
-------------------||------------------------|-------------------------|
-------------------||------------------------|-------------------------|



------------------------|------------------|-----------------------|
----0-----0-------------|------------------|--------0--1------0----|
-------2-------2--0--2--|------------------|--0--2-----------------|
------------------------|------------------|-----------------------|
------------------------|------------------|-----------------------|
------------------------|------------------|-----------------------|



-----------------------|-------------------------|------------------------|
--------0--------------|--------0--3----2--0--1--|----0-----0-------------|
--0--2-----0-----------|--0--2-------------------|-------2-------2--0--2--|
----------------2------|-------------------------|------------------------|
-----------------------|-------------------------|------------------------|
-----------------------|-------------------------|------------------------|



------------------|-----------------------|-----------------------|
------------------|--------0--1------0----|-----------------0-----|
------------------|--0--2-----------------|--2----0--2---------0--|
------------------|-----------------------|-----------------------|
------------------|-----------------------|-----------------------|
------------------|-----------------------|-----------------------|



--------------------|--0--------------------|------------------|
--------------------|-------0---------------|------------------|
--------------------|----------0------0-----|------------------|
----2----------2----|--------------------2--|------------------|
--------------------|-----------------------|------------------|
--------------------|-----------------------|------------------|



-----------------------|--------------------|--3----0---------------|
-----------------0-----|--------------------|----------0------------|
--2----0--2---------0--|--------------------|-----------------2--0--|
-----------------------|----2----------2----|-----------------------|
-----------------------|--------------------|-----------------------|
-----------------------|--------------------|-----------------------|


2x
-------------------||
-------------------||
------------------*||
------------------*||
-------------------||
-------------------||

OptimusPrime

Submitted by OptimusPrime at Sun 30 Oct, 2005 9:22 am

Author: ?
Composer: ?
Publisher: ?

Reactions

CommonCrawl [Bot]

Follow Muzikum