The Beatles

The Beatles
Something Ver2 (Guitar tab)

Something

C Cmaj7 C7 F
e--0--------------------------0-----0-----------------------------1-----
b*-1--------------------------0-----1-----------------------------1-----
g--0--------------------------0-----3-----------------------------2-----
d*-2--------------------------2-----2-----------------------------3-----
a--3--------------------------3-----3-----------------------------------
e-----------------------------------------------------------------------
something in the way she moves attracts me like no other lover
somewhere in her smile she knows that I don't need another lover
something in the way she knows and all I have to do is think her
of


D D7 G Am Am+7
e---2----------------2----------3-----------0-----------------------0----
b---3----------------1----------0-----------0-----------------------0----
g---2----------------2----------0-----------5-----------------------5----
d---0----------------0----------0-----------7-----------------------6----
a-------------------------------2-----------0-----------------------0----
e-------------------------------3----------------------------------------
something in the way she woos me I don't want to leave her now,
something in her style that shows me
something in the things she shows me


Am7 Am6 F G A A Amaj7 A7 A6
e------0-----------------0-----1---3-----0-----0------------0-----------------0-----0--
b------0-----------------0-----1---0-----2-----5------------5-----------------5-----5--
g------5-----------------5-----2---0-*---2-----6------------6-----------------6-----6--
d------5-----------------4-----3---0-----2-----7------------6-----------------5-----4--
a------0-----------------0---------2-*---0-----0------------0-----------------0-----0--
e----------------------------------3---------------------------------------------------
you know I believe and how you're asking me will my love grow


D G A A Amaj7 A7 A6
e----------2---3--------0----0-------------0---------------0----0------
b----------3---0--------2----5-------------5---------------5----5------
g----------2---0--------2----6-------------6---------------6----6------
d----------0---0--------2----7-------------6---------------5----4------
a--------------2--------0----0-------------0---------------0----0------
e--------------3-------------------------------------------------------
I don't know,I don't know. you stick around now, it may show


D G C
e---------2------3--------0------
b---------3------0--------1------
g---------2------0--------0------
d---------0------0--------2------
a----------------2--------3------
e----------------3---------------
I don't know, I don't know

------------------------------------------
m.vuijst
arr. P. J. Mulder

OptimusPrime

Submitted by OptimusPrime at Mon 12 Sep, 2005 10:07 am

Author: ?
Composer: ?
Publisher: ?
Language: English

Reactions

CommonCrawl [Bot]

Follow Muzikum