The Beatles

The Beatles
And Your Bird Can Sing (in Open Tuning) (Guitar tab)

TUNING
______________
|6|5|4|3 |2|1|
-------------
|E|B|E|G#|B|E| (open E)
--------------


INTRO/MAIN THEME:
E--------------------------------------------------0-----0-4---2p0----
B----9-7-5-7-5---5-----0---------7-9---9----10-9---0-0-2-0-5---2p0----
G#---8-7-5-7-5-7-5-7-5-0---0---8---8---8----10-8-----0-1-----------5-- (3)
E--------------7---7-5---5-0-7---7---------------------------------5-- (0)
B------------------------7---7-9--------------------------------------
E--0------------------------------------------------------------------
; . , . , . , . ; . , . , . , . ; . , . , . , . ; . , . , . , .

*SKIP this part when playing INTRO
*(this will require either muting the string between the two fretted notes or
E------------------------------------/12--1412-----7---------------- fingerpicking
B-----101210--------------1012141617-----------------9-------------- (I do the latter
G#1012------1210-8-7-81012-----------/12--1312-----8---8------------ for the whole song)
E------911-9---------------911121416-----------------7--------------
B-1012------1210-9-7-91012-----------------------------9------------
E-------------------------------------------------------------------
; . , . , . , . ; . , . , . , . ; . , . , . , . ; . , . , . , .


CHORUS:
E--------4--------- ------3--------- ------2--------- -----------------
B--0-2-4-4---4-2-0- 0-2-4-4---4-2-0- 0-5-4-4---7-2-0- 0-2-4-6----------
G#-0-2-3-----3-2-0- 0-2-3-----3-2-0- 0-6-3-----7-2-0- 0-2-3-5---5------
E------------------ ---------------- ---------------- ----------4-4-1--
B------------------ ---------------- ---------------- ------------6-2--
E------------------ ---------------- ---------------- -----------------
; . , . , . , . ; . , . , . , . ; . , . , . , . ; . , . , . , .

E------------------ ---------------- ---------------- -----------------
B--------5--------- ------7--------- ------7--------- -------7---------
G#-----3-3---3----- ----5-5---5----- ----5-5---5----- -----7-7---7-----
E--0-4-4-----4-4-0- --5-5-----5-5--- --5-5-----5-5--- ---7-7-----7-7---
B--0-5---------5-0- 7-7---------7-7- 7-7---------7-7- -7-7---------7-7-
E------------------ 9-------------9- 9-------------9- 11-------------11
; . , . , . , . ; . , . , . , . ; . , . , . , . ; . , . , . , .

OUTRO:
E-----------------------------------------------------
B----9-7-5-7-5---5---9-7-5-7-5---5---9-7-5-7-5---5----
G#---8-7-5-7-5-7-5---8-7-5-7-5-7-5---8-7-5-7-5-7-5-5--
E--------------7---------------7---------------7---5--
B--------------------------------------------------5--
E--0---------------0---------------0------------------
; . , . , . , . ; . , . , . , . ; . , . , . , .


send comments, questions, to

Peter House
rockhouse67@hotmail.com


\\\ \\\\ \\ \\\ \\\\
\ \ \ \ \ \ \
\\\ \\ \\\\ \ \\
\ \ \ \ \ \
\ \\\\ \ \ \\\ \\\\
---------------------------------
/ //// / / /// ////
/ / / / / /
/// // //// / //
/ / / / / / /
/// //// // /// ////

rockhous

Submitted by rockhous at Fri 26 Aug, 2005 2:21 am

Author: ?
Composer: ?
Publisher: ?
Language: English

Reactions

CommonCrawl [Bot]

Follow Muzikum