The Beatles

The Beatles
Michelle Ver 4 (Guitar tab)

intro:
e-0-0-0-0-0-0-0-0-0-0-1-1-0-0-0-0----------------------------------
b-0-0-0-0-0-0-0-0-1-1-1-1-0-0-0-0-----------------------------------
g-5-5-5-5-5-5-5-5-2-2-2-2-1-1-1-1-----------------------------------
d-7-7-6-6-5-5-4-4-3-3-0-0-2-2-2-2------------------------------------
a-0-0-0-0-0-0-0-0-0-0-----2-2-2-2--------------------------------------
e-------------------------0-0-0-0----------------------------------

A Dm7 G6 F F B7 E B7 E
e-0-0-0-0---1-1-1-1---0-----0---0-----0----1--0-2--2---0-0--2-2-0--
b-2-2-2-2---1-1-1-1---0-----0---0-----0----0--1-0--0---0-0--0-0-0--
g-2-2-2-2---2-2-2-2---0-----0---0-----0----1--2-2--2---1-1--2-2-1--4x
d-2-2-2-2---0-0-0-0---0-----0---0-----0----0--3-1--1---2-2--1-1-2--
a-0-0-0-0-------------2-----2---2-----2---------2--2---2-2--2-2-2--
e---------------------3-----3---3-----3----------------0-0------0--
michelle ma belle these are words that go together well my michelle
sont les mots qui vont tres bien ensemble,tres ensemble

Am 4x Csus4 4x F 4x
I love you,I love you,I love you, That's all I want to say
I need to,I need to,I need to I need to make you see
I want you,I want you,I want you, I think you know by now

E7 Am E7 intro
Until I find a way I will say the only words I know that you understand
what you mean to me until I do I'm hoping you will know what I mean
I'll get to you somehow until I do I'm telling you so you'll understand


or like this:2x bass-4 stroke
e-----0--------0-------------
b-----2--------2-------------
g---2---2----2---2-----------
d----------------------------
a-0--------0-----------------
e----------------------------
--------------------------------------------------------------------------
m.vuijst
arr. P.J. Mulder

OptimusPrime

Submitted by OptimusPrime at Thu 25 Aug, 2005 8:59 am

Author: ?
Composer: ?
Publisher: ?
Language: English

Reactions

CommonCrawl [Bot]

Follow Muzikum