The Beatles

The Beatles
Drive My Car Ver 2 (Guitar chord)

DRIVE MY CAR

Intro lick:

E------------------------------------------------------------
B----------------------6---5--7----7--5------5---7------------
G--------5----8-7-5--------5--7----7--5------5---7------------
D-----7-------------7---------------------5-------------------
A-------------------------------------------------------------
E-------------------------------------------------------------

Gsus4/D G
Asked a girl what she wanted to be

Gsus4/D G
She said baby, can't you see

Gsus4/D G
I wanna be famous, a star on the screen

Csus4/A
But you can do something in between

Bm G7
Baby you can drive my car

Bm G7
Yes I'm gonna be a star

Bm G7
Baby you can drive my car

D A7
And baby I love you

Gsus4/D G
I told a girl that my prospects were good

Gsus4/D G
And she said baby, it's understood

Gsus4/D G
Working for peanuts is all very fine

Csus4/A
But I can show you a better time

Bm G7
Baby you can drive my car

Bm G7
Yes I'm gonna be a star

Bm G7
Baby you can drive my car

D7 A7
And baby I love you

A7+9
Beep beepm beep beep


guitar solo

yeah!
|D7 |G7 |D7 |G7 |D7 |G7 |A7 | |


Bm G7
Baby you can drive my car

Bm G7
Yes I'm gonna be a star

Bm G7
Baby you can drive my car

D7 A7
And baby I love you

Gsus4/D G
I told a girl I can start right away

Gsus4/D G
And she said listen babe I got something to say

Gsus4/D G
I got no car and it's breaking my heart

Csus4/A
But I've found a driver and that's a start

Bm G7
Baby you can drive my car

Bm G7
Yes I'm gonna be a star

Bm G7
Baby you can drive my car

D A7
And baby I love you

A7+9 D G A
Beep beepm beep beep yeah

A7+9 D G A
Beep beepm beep beep yeah

A7+9 D G A
Beep beepm beep beep yeah

A7+9 D G A
Beep beepm beep beep yeah


some unusual chords in this song--yet easy to play!

Gsus4/D Csus4/A A7+9
E---3--------3-------8---------
B---1--------1-------8---------
G---0--------0-------6---------
D---0--------3-------7---------
A---x--------0-------7---------
E---x--------x-------5---------


chart and transcription Peter Kruger casparus50@yahoo.ca

jojo48

Submitted by jojo48 at Fri 18 Mar, 2005 12:47 am

Author: ?
Composer: ?
Publisher: ?
Language: English

Reactions

CommonCrawl [Bot]

Follow Muzikum