The Beatles

The Beatles
Day Tripper Correct (Bass tab)

#---------------------------------PLEASE NOTE----------------------------------#



#------------Created with Taborama Tab Creator-----www.taborama.com------------#


Title: Day Tripper
Artist: The Beatles
Album: Yesterday and Today

Instrument: 4 String Bass

Tabbed by: Teller_6six6 (like_2_laff@hotmail.com)

Tuning: Standard (E A D G)

This is just a slight change from the other tabs I've found out there. I've corrected a few errors and made it a bit easier.

Intro - Guitar plays once then bass come in.

Riff E X4
G|---------------------------------||
D|-----------2-0---4---0-2---------||
A|---------2-----2---2-------------||
E|--0--3-4-------------------------||


Verse

Riff E X2
G|---------------------------------||
D|-----------2-0---4---0-2---------||
A|---------2-----2---2-------------||
E|--0--3-4-------------------------||


Riff A X1
G|-----------2-0---4---0-2---------||
D|---------2-----2---2-------------||
A|--0--3-4-------------------------||
E|---------------------------------||


Riff E X1
G|---------------------------------||
D|-----------2-0---4---0-2---------||
A|---------2-----2---2-------------||
E|--0--3-4-------------------------||




Chorus

G|----------------|| X4
D|--------2-1-4---||
A|----1-4---------||
E|--2-------------||

G|--------------------------------------------------|| X1
D|--------5-4-7--------4-3-6-----3-66-3----1-44-1---||
A|----4-7----------3-6---------4---------2----------||
E|--5------------4----------------------------------||




Verse

Chorus



Bridge

G|----------------|----------------||x2 |----------------|----------------||x3
D|----------------|----------------|| |----------------|----------------||
A|--2--2--2--2----|--2--2--2--2----|| |--22-2-22-2-----|--22-2-22-2-----||
E|----------------|----------------|| |----------------|----------------||


G|----------------|----------------|| x1
D|----------------|----------------||
A|-22222222-------|--22222222------||
E|----------------|----------------||



Verse


Chorus


Outro - Guitar Play riff once and then bass comes in again playing riff repeatedly till fade out

Riff E
G|---------------------------------||
D|------------2-0---4---0-2--------||
A|----------2-----2---2------------||
E|-0-0--3-4------------------------||

Tessa_M

Submitted by Tessa_M at Fri 06 Aug, 2004 7:53 pm

Author: ?
Composer: ?
Publisher: ?
Language: English

Reactions

CommonCrawl [Bot]

Follow Muzikum