The Beatles

The Beatles
Hey Jude Ver. 3(a Readable One) (Bass tab)

song: hey jude
band: the beatles
tabbed by: Chopbass

Theres 3 hey jude tabs already. All three are exactly the same(like some just copied and pasted
it). Well mine is basically the same (noteswise and everything) but much more readable. So enjoy

G|-------------0-----------3--3-1---0-------0-0---5-3-1-0-----|
D|---3-0--0-3---------0-1--------3---3-0--3---------------3---|
A|---------------3---3----------------------------------------|
E|------------------------------------------------------------|

G|0------------------3-0-0-------0--3-0--3--3--0----------0---|
D|----0---3---3-1-0-------------3-3-1-----------1------3-1-3--|
A|-1-3---------------3-0-1------------------------------------|
E|------------------------------------------------------------|

G|-------------------------------------------------0--1-1-2---|
D|-3--3-1--0--------------1-0------------0------3-------------|
A|----------------3--1--------3-1-3--3-3-----1----------------|
E|------------------------------------------------------------|

G|3--5-5-------------0---------3-----3-0-0-------0-0--5-3-1-0-|
D|----------3-0--0-3-------0-1-------------3-3-1--------------|
A|---------------------3-3------------------------------------|
E|------------------------------------------------------------|

G|------0------------------------5-3-3--5-3-3-----1-0---------|
D|-3----0--3--3-1-0----------0-3----------------------3----0-3|
A|----1-3-------------3-0-1---1--------------------------1----|
E|------------------------------------------------------------|

G|-----5-3-3--5-3-3---1-0-----3--------1------0-----3-0-------|
D|-----------------------3-------------------------------3----|
A|------------------------------------------------------------|
E|------------------------------------------------------------|

OptimusPrime

Submitted by OptimusPrime at Fri 11 Jun, 2004 4:21 pm

Author: ?
Composer: ?
Publisher: ?
Language: English

Reactions

CommonCrawl [Bot]

Follow Muzikum