The Beatles

The Beatles
Day Tripper (Guitar tab)

Riff 1
E-------------------------------
B--------------------------------
G-------------------------------- played lots of times
D-----------2--0----4-----0--2-
A---------2-------2----2----------
E--0--3-4-------------------------


riff 2 x1 then repeat riff 1
E-------------------------
B-------------------------
G---------2-0--4---0h2----
D-------2-----2--2--------
A-0-3-4-------------------
E-------------------------

Chorus:

E------------------------------------------------------
B------------------------------------------------------
G------------------------------------------6-6-6-6-----
D---4-4-4-4---4-4-4-4------7-7-----6-6-----6-6-6-6-----
A---4-4-4-4---4-4-4-4------7-7-----6-6-----4-4-4-4-----
E---2-2-2-2---2-2-2-2------5-5-----4-4-----------------

repeat riff1 & 2 sequence

chorus

etc.

im not sure about the rythem and i play the first chord with
a hammer on on the bottom E it just gives it some emphasises.
Listen to the record and im sure youll pick it up.

Enjoy!

OptimusPrime

Submitted by OptimusPrime at Sun 04 Apr, 2004 5:48 pm

Author: ?
Composer: ?
Publisher: ?
Language: English

Reactions

CommonCrawl [Bot]

Follow Muzikum