The Beatles

The Beatles
Yesterday (Bass tab)

Artist: The Beatles / Paul McCartney
Title: Yesterday
Transcribed by: $e�n
Email: seantheexcellent@hotmail.com

This sounds right to me, please correct me if im wrong; note that timings aren't exact. Enjoy!


VERSE

------------------------------------------------------------------------------
------------------------------------------------------------------------------
-----------------------------2----2-------------------3----5------------------
----3----3----3----0----2--------------0----0----0--------------3----3----3---


------------------------------------------------------------------------------
------------------------------------------------------------------------------
--------------3---------------------------------------------------------------
----2----0---------3----3----3------------------------------------------------


CHORUS

------------------------------------------------------------------------------
--------------2----4----5----4----2----4----2----0----2-----------------------
----2----2-------------------------------------------------2------------------
------------------------------------------------------------------------------


------------------------------------------------------------------------------
-------------2----4----5----4----2----4----2----0----4----5----4----0---------
----2----2--------------------------------------------------------------3----2
------------------------------------------------------------------------------

OptimusPrime

Submitted by OptimusPrime at Thu 14 Aug, 2003 4:11 pm

Author: ?
Composer: ?
Publisher: ?
Language: English

Reactions

CommonCrawl [Bot]

Follow Muzikum