The Beatles

The Beatles
Twist´n´shout (Bass tab)

Vers
G-------0-4-22---000--------
D---0-0--------2-----444----
A---------------------------
E---------------------------

Bridge

G---------------------------
D---------------------------
A-0-0-0-0-0-0-0-0----------
E---------------------------

The End

G---------------------------
D-----------5---------------
A-1-2-3-4-5-----------------
E---------------------------

OptimusPrime

Submitted by OptimusPrime at Thu 14 Aug, 2003 4:11 pm

Author: ?
Composer: ?
Publisher: ?
Language: English

Reactions

CommonCrawl [Bot]

Follow Muzikum