The Beatles

The Beatles
Twist & Shout (Bass tab)

The Beatles
Twist & Shout
(George Harrison = bass)

INTRO:
-------------------------------
---------2---------------------
-0-2-4-3---3-----0-------------
-------------1-1---3-3-3-3-3-3-

VERSE: (see INTRO)

BRIDGE:
-----------------------------------------------------------------
---------0-3-2-2-2-2-0-----------------------0-0-0-0-0-2-2-2-2-2-
-3-3-3-3---------------3-----------2-2-2-2-2---------------------
-------------------------3-3-3-3-3-------------------------------

OptimusPrime

Submitted by OptimusPrime at Thu 14 Aug, 2003 4:11 pm

Author: ?
Composer: ?
Publisher: ?
Language: English

Reactions

CommonCrawl [Bot]

Follow Muzikum