The Beatles

The Beatles
The Sheik Of Araby (Guitar tab)

The Sheik Of Araby - The Beatles

From the DECCA Audition (Anthology 1)

Intro

E -|-----------------------------------------------------------|
B -|-----------------------------------------------------------|
G -|-----------------------------------------------------------|
D -|-------------------0------------0--22-23-00----------------|
A -|-0-2-3-2-0--0-2-3-----3-2-0--3--------------33--0----------|
E -|----------------------------------------------------3------|


Chords used

E -|--8----8----10----10----3--5---X--------------------------------------|
B -|--8----7----10----10----3--5---3--------------------------------------|
G -|--9----8----10----11----4--6---5--------------------------------------|
D -|--10---7----12----10----5--7---4--------------------------------------|
A -|--10---X-----X----12----5--7---5--------------------------------------|
E -|--8----X-----X----10----3--5---X--------------------------------------|

C Cdim Dm D7(i) G A D7(ii)

Fill 1

E -|-------------------------------------|
B -|-------------------------------------|
G -|-------------------------------------|
D -|-------------------------------------|
A -|--10-10-12-10-10-10-12--5------------|
E -|--8--8--8--8--8--8--8---3------------|

Fill 2

E -|-------------------------------------|
B -|-------------------------------------|
G -|-------------------------------------|
D -|-------------------------------------|
A -|-2-2-4--2-2-2-4--2-2-2-4--2-2-2-4----|
E -|-0-0-0--0-0-0-0--0-0-0-0--0-0-0-0----|

Fill 3

E -|-------------------------------------|
B -|-------------------------------------|
G -|-------------------------------------|
D -|-------------------------------------|
A -|-2-2-----2 2--2---2-2-----2-2---2----|
E -|-0-0-3-4----4------0-0-3-4-----4-----|

Chord Progression

| C | Cdim | Dm | Dm |
| D7(i) | G | C | C |
| C | Cdim | Dm | Dm |
| Dm | G | Fill 1 |
| C | Cdim | Dm | Dm |
| Dm | G | Fill 2 |
| A | A |D7(ii)|D7(ii)|
|D7(ii) | G | A | G |

| C | Cdim | Dm | Dm |
| D7(i) | G | C | C |
| C | Cdim | Dm | Dm |
| Dm | G | Fill 1 |
| C | Cdim | Dm | Dm |
| Dm | G | Fill 3 |
| A | A |D7(ii)|D7(ii)|
|D7(ii) | G | C | A |

|D7(ii) | G | C | A |
|D7(ii) | G | C | C |

OptimusPrime

Submitted by OptimusPrime at Thu 14 Aug, 2003 4:11 pm

Author: ?
Composer: ?
Publisher: ?
Language: English

Reactions

CommonCrawl [Bot]

Follow Muzikum