The Beatles

The Beatles
The Continuing Story Of Bungalow Bill (Bass tab)

The Continuing Story of Bungalow Bill
The Beatles
Transcribed by Justin Benz


0:00 Intro Chorus
G---|--------------------------|---------------------------|--------------------
D---|--10-----10\---5-----5/---|--10-----10-----3-----3/---|--10-----10\---3----
A---|--------------------------|---------------------------|--------------------
E---|--------------------------|---------------------------|--------------------



G------------|--------------|------------------------|--------------------------
D------3--4--|--5-----5--6--|--7-----7\---2-----2/---|--7-----7\---0-----0------
A------------|--------------|------------------------|--------------------------
E------------|--------------|------------------------|--------------------------



G-------|-------------------------|---------------------------------------------
D---/---|--7-----7\---0-----0--1--|--2-----0------------------------------------
A-------|-------------------------|--------------3-----2------------------------
E-------|-------------------------|---------------------------------------------


0:15 First Verse
G---|--------------------------|--------------------------|---------------------
D---|--------------------------|--3-----------3-----5-----|--7------------------
A---|--0--------0--3--------3--|-----------3--------------|-----------5--3------
E---|--------------------------|--------------------------|---------------------



G------------|--------------------------|--------------------------|------------
D------------|--3-----------3-----5-----|--2--------2--5--------5--|------------
A---------3--|-----------3--------------|--------------------------|--0--2------
E------------|--------------------------|--------------------------|------------


0:37 Chorus
G------------------|--------------------------|---------------------------|-----
D------2--3--------|--10-----10\---5-----5/---|--10-----10-----3-----3/---|-----
A---3--------------|--------------------------|---------------------------|-----
E------------------|--------------------------|---------------------------|-----



G----------------------------|--------------|------------------------|----------
D---10-----10\---3-----3--4--|--5-----5--6--|--7-----7\---2-----2/---|--7-------
A----------------------------|--------------|------------------------|----------
E----------------------------|--------------|------------------------|----------



G-------------------|-------------------------|---------------------------------
D---7\---0-----0/---|--7-----7\---0-----0--1--|--2-----0------------------------
A-------------------|-------------------------|--------------3-----2------------
E-------------------|-------------------------|---------------------------------


0:53 Second Verse
G---|--------------------------|--------------------------|---------------------
D---|--------------------------|--3-----------3-----5-----|--7------------------
A---|--0--------0--3--------3--|-----------3--------------|-----------5--3------
E---|--------------------------|--------------------------|---------------------



G------------|--------------------------|--------------------------|------------
D------------|--3-----------3-----5-----|--2--------2--5--------5--|------------
A---------3--|-----------3--------------|--------------------------|--0--2------
E------------|--------------------------|--------------------------|------------


1:15 Chorus
G------------------|--------------------------|---------------------------|-----
D------2--3--------|--10-----10\---5-----5/---|--10-----10-----3-----3/---|-----
A---3--------------|--------------------------|---------------------------|-----
E------------------|--------------------------|---------------------------|-----



G----------------------------|--------------|------------------------|----------
D---10-----10\---3-----3--4--|--5-----5--6--|--7-----7\---2-----2/---|--7-------
A----------------------------|--------------|------------------------|----------
E----------------------------|--------------|------------------------|----------



G-------------------|-------------------------|---------------------------------
D---7\---0-----0/---|--7-----7\---0-----0--1--|--2-----0------------------------
A-------------------|-------------------------|--------------3-----2------------
E-------------------|-------------------------|---------------------------------


1:31 Third Verse
G---|--------------------------|--------------------------|---------------------
D---|--------------------------|--3-----------3-----5-----|--7------------------
A---|--0--------0--3--------3--|-----------3--------------|-----------5--3------
E---|--------------------------|--------------------------|---------------------



G------------|--------------------------|--------------------------|------------
D------------|--3-----------3-----5-----|--2--------2--5--------5--|------------
A---------3--|-----------3--------------|--------------------------|--0--2------
E------------|--------------------------|--------------------------|------------


1:53 Chorus Repeat and End
G------------------||---------------------------|-------------------------------
D------2--3--------||*--10-----10\---5-----5/---|--10-----10-----3-----3/-------
A---3--------------||*--------------------------|-------------------------------
E------------------||---------------------------|-------------------------------



G---|---------------------------|--------------|------------------------|-------
D---|--10-----10\---3-----3--4--|--5-----5--6--|--7-----7\---2-----2/---|--7----
A---|---------------------------|--------------|------------------------|-------
E---|---------------------------|--------------|------------------------|-------



G----------------------|-------------------------|--------------||--------------
D------7\---0-----0/---|--7-----7\---0-----0--1--|--2-----2/---*||--------------
A----------------------|-------------------------|-------------*||--------------
E----------------------|-------------------------|--------------||--------------




================================================================================
== Created with a demo version of BUCKET O' TAB ==
== tablature creation software for Windows ==
== http://www.his.com/~gse/bucket ==
================================================================================

OptimusPrime

Submitted by OptimusPrime at Thu 14 Aug, 2003 4:11 pm

Author: ?
Composer: ?
Publisher: ?
Language: English

Reactions

CommonCrawl [Bot]

Follow Muzikum