The Beatles

The Beatles
The Ballad Of John And Yoko (Bass tab)

The Ballad Of John and Yoko
Normal Tuning
This is the right one


G)-------------------------------
D)------------------------------- Verse
A)------------2-4-2-------------
E)----0---4-----------------------

Change to Chorus ofter "Christ you know its not easy"

G)------------------------------------------------------------------------------------------1------
D)------------2-4-2-----------2-4-2--------------------------------------------------1-4--4---
A)-----0--4-------------0--4--------------------2-4-2-----------2-4-2------------2------------ Chorus
E)----------------------------------------0--4-------------0--4-----------------------------------


G)----------------------------------
D)-------2-4-2---------------------���� Chorus cont.
A)--0-4-----------------2-4-2-----
E)-----------------0--4------------

Chours (5x or so)
Verse

Bridge

G)------------------------------------
D)-----------2-4-2----------------------��� (3x or so)
A)------0-4-------------------------------
E)--------------------------------------

then

G)-------------------
D)------------------
A)--2222222222-- or so
E)----------------

Chorus
Verse




any corrects sent to blades_666@hotmail.com peace out

OptimusPrime

Submitted by OptimusPrime at Thu 14 Aug, 2003 4:11 pm

Author: ?
Composer: ?
Publisher: ?
Language: English

Reactions

CommonCrawl [Bot]

Follow Muzikum