The Beatles

The Beatles
Taxman Ver 4 (Bass tab)

TAXMAN by THE BEATLES
Written by George Harrison
Off 'Revolver' (Parlophone, 1966)

This a more comprehensive bass tab of the one already here,
it's not 100% correct but it sounds pretty much right.

INTRO

D7
---7------5---|----7-----5---|--
-----5h7------|------5h7-----|--
-5------------|--5-----------|--
--------------|--------------|--

VERSE 1

D7 D7#9 D7
---7------5---|----7-----5---|-----------5--|----7-----5---|--
-----5h7------|------5h7-----|-------5/7----|------5h7-----|--
-5------------|--5-----------|--5--5--------|--5-----------|--
--------------|--------------|--------------|--------------|--

D7 D7#9 D7
---7------5---|----7-----5---|-----------5--|----7-----5\--|--
-----5h7------|------5h7-----|-------5/7----|------5h7-----|--
-5------------|--5-----------|--5--5--------|--5-----------|--
--------------|--------------|--------------|--------------|--

1ST CHORUS

C7 G7#9 D7
----5-----3---|----5-----3---|--------------|----7-----5---|--
-------5------|------3h5-----|----5-----3---|------5h7-----|--
--3-----------|--3-----------|------3h5-----|--5-----------|--
--------------|--------------|--3-----------|--------------|--

VERSE 2

D7 D7#9 D7
---7------5---|----7-----5---|-----------5--|----7-----5---|--
-----5h7------|------5h7-----|-------5/7----|------5h7-----|--
-5------------|--5-----------|--5--5--------|--5-----------|--
--------------|--------------|--------------|--------------|--

D7 D7#9 D7
---7------5---|----7-----5---|-----------5--|----7-----5\--|--
-----5h7------|------5h7-----|-------5/7----|------5h7-----|--
-5------------|--5-----------|--5--5--------|--5-----------|--
--------------|--------------|--------------|--------------|--

2ND CHORUS

C7 G7#9 D7
----5-----3---|----5-----3---|--------------|----7-----5---|--
------3h5-----|------3h5-----|----5-----3---|------5h7-----|--
--3-----------|--3-----------|------3h5-----|--5-----------|--
--------------|--------------|--3-----------|--------------|--

MIDDLE (if you drive a car...)

D7 C7
--5/7-5/7-5/7\|--5/7-5/7-5/7\|--5/7-5/7-5/7\|--------------|--
--------------|--------------|--------------|--------------|-- (x2)
-5------------|-5------------|-5------------|--3--3--3--3--|--
--------------|--------------|--------------|--------------|--

C7 D7 (guitar solo) D7#9
--------------|----7-----5---|----7-----5---|-----------5--|--
--------------|------5h7-----|------5h7-----|-------5/7----|--
---3333333----|--5-----------|--5-----------|--5--5--------|--
--------------|--------------|--------------|--------------|--

D7 D7#9
----7-----5---|---77-----5---|---77-----5---|-----------5--|--
------5h7-----|------5-7-----|------5-7-----|-------5/7----|--
--5-----------|--5-----------|--5-----------|--5--5--------|--
--------------|--------------|--------------|--------------|--


---5/7---7\---|--
-------5------|--
--5-----------|--
--------------|--

3RD CHORUS

C7 G7#9 D7
----5-----3---|----5-----3---|--------------|----7-----5---|--
------3h5-----|------3h5-----|----5-----3---|------5h7-----|--
--3-----------|--3-----------|------3h5---5-|--5-----------|--
--------------|--------------|--3-----------|--------------|--

VERSE THREE

D7 D7#9 D7
---7------5---|----7-----5---|-----------5--|----7-----5---|--
-----5h7------|------5h7-----|-------5/7----|------5h7-----|--
-5------------|--5-----------|--5--5--------|--5-----------|--
--------------|--------------|--------------|--------------|--

D7 D7#9 D7
---7------5---|----7-----5---|-----------5--|----7\--7-----|--
-----5h7------|------5h7-----|-------5/7----|--------------|--
-5------------|--5-----------|--5--5--------|--5-----------|--
--------------|--------------|--------------|--------------|--

4TH CHORUS

C7 G7#9 D7
----5-----3---|----5-----3---|--------------|----7-----5---|--
------3h5-----|------3h5---5-|----5-----3---|------5h7---7-|--
--3-----------|--3-----------|------3h5---5-|--5-----------|--
--------------|--------------|--3-----------|--------------|--

VERSE FOUR

D7 D7#9 D7
---7------5---|----7-----5---|-----------5--|----7-----5---|--
-----5h7------|------5h7-----|-------5/7----|------5h7-----|--
-5------------|--5-----------|--5--5--------|--5-----------|--
--------------|--------------|--------------|--------------|--

D7 D7#9 D7
---7------5---|----7-----5---|-----------5--|---5/7-5/7----|--
-----5h7------|------5h7-----|-------5/7----|--------------|--
-5------------|--5-----------|--5--5--------|--5--------5\-|--
--------------|--------------|--------------|--------------|--

5TH CHORUS

C7 G7#9 D7
----5-----3---|---55-----3---|--------------|----7-----5---|--
------3h5---5-|------3h5---5-|----5-----3---|------5h7---7-|--
--3-----------|-3------------|------3h5---5-|--5-----------|--
--------------|--------------|--3-----------|--------------|--

END

F
--------------|--------------|--
--------------|--------------|--
--8--8--8--8--|--8--6--5--3--|--
--------------|--------------|--

D7 D7#9
----7-----5---|----7-----5---|-----------5--|---77-----5---|--
------5h7-----|------5h7-----|-------5/7----|------5-7-----|--
--5-----------|--5-----------|--5--5--------|--5-----------|--
--------------|--------------|--------------|--------------|--

D7#9
---77-----5---|---77-----5---|-----------5--|--
------5-7-----|------5-7-----|-------5/7----|--
--5-----------|--5-----------|--5--5--------|--
--------------|--------------|--------------|--

OptimusPrime

Submitted by OptimusPrime at Thu 14 Aug, 2003 4:11 pm

Author: ?
Composer: ?
Publisher: ?
Language: English

Reactions

CommonCrawl [Bot]

Follow Muzikum