The Beatles

The Beatles
Taxman Ver 2 (Bass tab)

Tabbed By Bryce Vielguth..TURN TO JESUS UNLESS YOU WANT TO GO TO HELL. RATHER BE SAFE THEN SORRY. ENJOY

------7-----5-----7-----5---7-----5---7-----7-5-----------------7-----5-------
--------5-7---------5-7-------5-7------5-7------7-5---------------5-7---------
----5-----------5---------5---------5---------------7-5-------5---------------
-----------------------------------------------------------7------------------

---7-----5---7-----5----7-----5---7-----5-7-5-----------------
-----5-7-------5-7--------5-7-------5-7-------7-5-------------
-5---------5---------5----------5-----------------7-5---------
-------------------------------------------------------7------

OptimusPrime

Submitted by OptimusPrime at Thu 14 Aug, 2003 4:11 pm

Author: ?
Composer: ?
Publisher: ?
Language: English

Reactions

CommonCrawl [Bot]

Follow Muzikum