The Beatles

The Beatles
Something Ver 2 (Bass tab)

SOMETHING
George Harrison

G|--------------------------------|----------5-5-5-5---------------|
D|--------------------------------|------------------------2--3/5--|
A|----------------6-------5-------|3-------------------------------|
E|1-------------------------------|--------------------------------|
^ ^ ^ ^ ^ ^ ^ ^

|--------------------------------|----5-5-5-5-5-------------------|
|5~~~--------5h7-5---------------|----------------------------2---|
|----------------------------5---|3-------------------3---5-------|
|--------------------------------|--------------------------------|
^ ^ ^ ^ ^ ^ ^ ^

|--------------------------------|------------7-7-7---------------|
|3-----------3h5-3-------2-------|------------------------4---9p7-|
|--------------------------------|5-------------------5-----------|
|--------------------------------|--------------------------------|
^ ^ ^ ^ ^ ^ ^ ^

|--------------------------------|-------------7h9-10-9-7---------|
|5-5-5h7-7-7-7/9-9~~~------------|7-----------------------10-9-7--|
|--------------------------------|--------------------------------|
|--------------------------------|--------------------------------|
^ ^ ^ ^ ^ ^ ^ ^

|--------------------------------|--------------------------------|
|5-----------6-7-----------------|--------------------------------|
|----------------5-----------7---|8-------8p7-5---6-------5-------|
|--------------------------------|--------------8-----------------|
^ ^ ^ ^ ^ ^ ^ ^

|----5---5-5-5-5-5---5-----------|--------------------------------|
|------------------------2--3/5--|5~~~--------5h7-5---------------|
|3-------------------------------|------------------------7---5---|
|--------------------------------|--------------------------------|
^ ^ ^ ^ ^ ^ ^ ^

|----5-5-5---5-5-5---------------|--------------------------------|
|----------------------------2---|3-----------------------2-------|
|3-------------------3---5-------|--------------------------------|
|--------------------------------|--------1-1-1---1---------------|
^ ^ ^ ^ ^ ^ ^ ^

|--------------------------------|--------------------------------|
|------------4---7---------------|5-5-5-5-5h7-7-7-7-7/9--9--------|
|5-----------------------5-------|--------------------------------|
|--------------------------------|--------------------------------|
^ ^ ^ ^ ^ ^ ^ ^

|-------------7h9-10-9-7---------|--------------------------------|
|7---7-------------------10-9-7--|5-----5---6-7-------------------|
|--------------------------------|---5------------5-----------7---|
|--------------------------------|--------------------------------|
^ ^ ^ ^ ^ ^ ^ ^


|--------------------------------|--------6---9---6-6-6-6-6-7-8-9-|
|--------------------------------|7-7-7-7---7---7-----------------|
|8---------------6-------5-------|--------------------------------|
|--------------------------------|--------------------------------|
^ ^ ^ ^ ^ ^ ^ ^

|--------9---9-----------9---9---|--------9---9-----------9---9---|
|7---7-----------6---6-----------|--------------------------------|
|--------------------------------|9---9-----------7---7-----------|
|--------------------------------|--------------------------------|
^ ^ ^ ^ ^ ^ ^ ^

|--------------------------------|--------------------------------|
|--------4---4---5---5---5---5---|--------------------------------|
|5---5---------------------------|--------------------------------|
|--------------------------------|5----4-----3-----2----1----0----|
^ ^ ^ ^

|--------------------------------|--------------------------------|
|--------2---2-----------2h4-2---|--------2---2-----------2---2---|
|--------------------------------|--------------------------------|
|5---5-----------4---4-----------|2---2-----------0---0-----------|
^ ^ ^ ^ ^ ^ ^ ^


|--------------------------------|5----4--------------------------|
|--------4---4---5---5---5---5---|-----------7-----5--------------|
|5---5---------------------------|----------------------7----5----|
|--------------------------------|--------------------------------|
^ ^ ^ ^

Guitar solo
|----------5-5-5-5---5-----------|--------------------------------|
|------------------------2---3/5-|5-----------5h7-5---------------|
|3-------------------------------|----------------------------7p5-|
|--------------------------------|--------------------------------|
^ ^ ^ ^ ^ ^ ^ ^


|---5--5-5-5-5-5-5---------------|--------------------------------|
|--------------------------------|------3-3-3-3-----------2-------|
|3-------------------3---1p0-----|----------------------------3---|
|----------------------------3\1-|1-------------------------------|
^ ^ ^ ^ ^ ^ ^ ^


|--------------------------------|--------------------------------|
|--------------4-7-----------4---|5-5-5-5-5h7-7-7-7-7/9~~~--------|
|5-----------5-------5---7-------|--------------------------------|
|--------------------------------|--------------------------------|
^ ^ ^ ^ ^ ^ ^ ^


|-------------7h9-10-9-7---------|-----------------------------7\-|
|7---7-------------------10-9-7-9|7\----5-----6-7-----------------|
|--------------------------------|--------7-5-----5---------------|
|--------------------------------|--------------------------------|
^ ^ ^ ^ ^ ^ ^ ^

|--------------------------------|--------------------5-5-5-5-5---|
|--------------------------------|-------------------------------5|
|8-------7p5-----6-------5-------|3h5p3-------3---3---------------|
|------------8-------------------|--------------------------------|
^ ^ ^ ^ ^ ^ ^ ^

|----------------5---------------|----5-5-5-5-5-5-5---------------|
|5h7p5---5h7p5-------5h7-5-------|--------------------2---5---2---|
|----------------------------7\5-|3-------------------------------|
|--------------------------------|--------------------------------|
^ ^ ^ ^ ^ ^ ^ ^

|--------------------------------|------------------7-7---7-------|
|3-----------------------2-------|--------------4-7-----------4---|
|--------------------------------|5-----------5-------------------|
|------------1-1-1---------------|--------------------------------|
^ ^ ^ ^ ^ ^ ^ ^

|--------------------------------|-------------7h9-10-9-7---------|
|5---5-5-5h7-7-7-7/9-------------|7---7-------------------10-9-7-9|
|--------------------------------|--------------------------------|
|--------------------------------|--------------------------------|
^ ^ ^ ^ ^ ^ ^ ^

|--------------------------------|--------------------------------|
|7\------------------------------|--------------------------------|
|---5--0---3--5--5-----------7---|8---------------6-------5-------|
|--------------------------------|--------------------------------|
^ ^ ^ ^ ^ ^ ^ ^


|------------6-6-6-7-7-7-8-8-9-9-|9/10-10-10-10p9-7--8----7-------|
|7-7-7-7-7-7---------------------|-----------------10-------------|
|--------------------------------|--------------------------------|
|--------------------------------|--------------------------------|
^ ^ ^ ^ ^ ^ ^ ^


|--------------------------------|
|--------------------------------|
|5p3-----------------------------|
|--------------------------------|
^ ^ ^ ^


==============================================================================
I Cesar Wilhelm Massen Prieb I
I Porto Alegre-Rio Grande do Sul I
I BRASIL I
I cprieb@vortex.ufrgs.br I
==============================================================================

OptimusPrime

Submitted by OptimusPrime at Thu 14 Aug, 2003 4:11 pm

Author: ?
Composer: ?
Publisher: ?
Language: English

Reactions

CommonCrawl [Bot]

Follow Muzikum