The Beatles

The Beatles
She Came In Through The Bathroom Window (Bass tab)

standard tuning.

--------------------
--------------------
-7-5-4-2-22-222/12--
--------------------

Verse
----------------------------4----------------
---4-7-77-4/-----4------4-7---7-4-----4------
-5-----------0-4---4--5-----------0-4---7----
---------------------------------------------

-----------------------
-----4-777-------------
-5-7-------5-5-5-555/0-
-----------------------

Chorus
------------------------------------------------
-------5-7--------------------------------------
-5-7-8-----7/-4-0--5-3-2-0----2-5-----2-3--2--0-
----------------------------3-----3h5-----------

-----------------2--
-----5/------2-5----
---5----2--3--------
-3------------------

Verse
------------------------------------------4---------------
-------4h7p4/------2-24-42-----4-7-7----7--------2-24-42--
-5-55-5--------0-04-------4-05------5-5------0-04-------4-
----------------------------------------------------------

------------4------------4-4h5-7-4---------
-----4-7------7-4----4-7-----------7-4/----
-05-5----05-------05--------------------0--
-------------------------------------------

Play first verse again, adding this in for last.
-------------------4-7-4-----
-----4-777-----4-7-------7/---
-5-7-------5-5-------------0-
-----------------------------

Chorus
---------------------------------------------
-------5-7------------------------5----------
-5-7-8-----7/-4-0--5-3-2-0----2-5----3--2--0-
----------------------------3----------------

-----------------2--
-----5/------2-5----
---5----2--3--------
-3------------------

Tab by Tim SHoemaker

OptimusPrime

Submitted by OptimusPrime at Thu 14 Aug, 2003 4:10 pm

Author: ?
Composer: ?
Publisher: ?
Language: English

Reactions

CommonCrawl [Bot]

Follow Muzikum