The Beatles

The Beatles
Rain (Bass tab)

Rain - The Beatles

Intro
x3
G|---12---------10h12-10--|------|
D|---------12h14----------|------|
A|/10----10---------------|10----|
E|------------------------|------|

First Verse
G|---1212--------10-------------------1212-------10-10---------------------1212--------10-
D|----------10h12---12-10-10-12-12----------12h14------12-10-10-12-12-------------12h14---
A|10------10-----------------------10-----10--------------------------8-10------10--------
E|----------------------------------------------------------------------------------------

-----------------------------------------------------------------|
12-10-10---------10-10-10---8h10-------10h12-12--------10h12-12--|
---------8-8-8h10--------10------10-10-----------10-10-----------|
-----------------------------------------------------------------|

Second Verse
G|------------10----------------10----------------10----------------10----------------
D|-------10h12----12-10-10-10h12--12p10\9----10h12----12-10-10-10h12--12p10\9---------
A|10-10----------------------------------10----------------------------------10--55---
E|---------------------------------------------------------------------------------33-

x16
--------------------------------------|/12-|
---------------------/5---------------|----|
35-5-----/3-/3-/33/33------/5-----553-|----|
----3-3-----------------------3--5---0|----|

Shouldn't be too hard to figure out the rest.
Tabbed by Achilles (blue_sincere@hotmail.com)

OptimusPrime

Submitted by OptimusPrime at Thu 14 Aug, 2003 4:10 pm

Author: ?
Composer: ?
Publisher: ?
Language: English

Reactions

CommonCrawl [Bot]

Follow Muzikum