The Beatles

The Beatles
Martha My Dear (Bass tab)

Martha My Dear
The Beatles
Transcribed by Justin Benz


Piano, Vocals, Strings 0:38
G---|-----------------------|--------------------------|------------------------
D---|-----------------------|--------------------------|--5-----------5---------
A---|-----------------------|--5-----------5-----------|--------5---------------
E---|-----------------------|--------5-----------5-----|------------------------



G---------|--------------------------|--------------------------|---------------
D---------|--3-----------3-----------|--------------------------|---------------
A---5-----|--------3-----------3-----|--------------------3-----|--3------------
E---------|--------------------------|--1--------5--------------|--------3------



G------------------|--------------------------|-----------------|---------------
D------------------|--------------------------|-----------------|---------------
A------3-----------|--3-----------3-----------|--5--------------|---------------
E------------3-----|--------3-----------5-----|-----------------|--3------------


1:00
G------|--------------------|--------------------------------------|------------
D------|-----------------3--|--5--5--5-----5--3--5--5-----5--3--5--|------------
A------|--5--5--5-----5-----|--------------------------------------|--5--5------
E------|--------------------|--------------------------------------|------------



G---------------|--------------------------------------|------------------------
D------------3--|--5--5--5-----5-----5--3-----2--2-----|------------------------
A---5-----5-----|-----------------5-----------------5--|--3--3--3-----3--2------
E---------------|--------------------------------------|------------------------



G--------------|-------------------------------------|--------------------------
D--------------|--8--8--8-----8--7--8--8-----8--7--8\|--------------------------
A---3--3--3--3/|-------------------------------------|--5-----------5-----------
E--------------|-------------------------------------|--------5-----------5-----


1:20
G------|--------------|-------------8-------------|--------------------|--------
D------|--------------|----------------8\---1-----|--1-----------1-----|--------
A------|--------------|---------------------------|--------1-----------|--1-----
E------|--3-----------|--(3)----------------------|--------------------|--------



G------------|--------------------------|-----------5/10~~~-----|-----10--------
D------------|--5-----3-----2--------2--|--3--5--7--------------|--8------8-----
A------5-----|-----------------3--5-----|-----------------------|---------------
E------------|--------------------------|-----------------------|---------------



G--------8-------|-----10----------8-------|-----10----------8-------|----------
D---8\6-----6--6/|--8------8--8\6-----6--6/|--8------8--8\6-----6--6/|--8-------
A----------------|-------------------------|-------------------------|----------
E----------------|-------------------------|-------------------------|----------


1:40
G---------|--------------------------|--------------------------|---------------
D---------|--------------------------|--5-----------5-----------|--3------------
A---------|--5-----------5-----------|--------5-----------5-----|--------3------
E---------|--------5-----------5-----|--------------------------|---------------



G------------------|--------------------------|--------------------------|------
D------3-----------|--------------------------|--------------------------|------
A------------3-----|--------------------3-----|--3-----------3-----------|------
E------------------|--1--------5--------------|--------3-----------3-----|------



G---------------------------|--------------------------|--------------|---------
D---------------------------|--------------------------|--------------|---------
A---3-----------3-----------|--5-----------5-----------|--------------|---------
E---------3-----------5-----|--------5-----------5-----|--3-----------|--(3)----


2:02
G---------8--------8\|--------------------|--------------|----------------------
D------------8-------|--1-----------1-----|--------------|--5-----3-----2-------
A---------------6----|--------1-----------|--1-----5-----|-----------------3----
E--------------------|--------------------|--------------|----------------------



G---------|-----------5/10~~~-----|-----10----------8-------|-----10------------
D------2--|--3--5--7--------------|--8---------8\6--------6/|--8---------8------
A---5-----|-----------------------|-------------------------|-------------------
E---------|-----------------------|-------------------------|-------------------



G-------8-------|-----10----------8--------|--------------|--8-----7-----5------
D---\6--------6/|--8---------8\6--------6--|--8-----------|---------------------
A---------------|--------------------------|--------------|---------------------
E---------------|--------------------------|--------------|---------------------



G------------|-----------------||-----------------------------------------------
D------8-----|-----------------||-----------------------------------------------
A------------|--6--------------||-----------------------------------------------
E------------|-----------------||-----------------------------------------------




================================================================================
== Created with a demo version of BUCKET O' TAB ==
== tablature creation software for Windows ==
== http://www.his.com/~gse/bucket ==
================================================================================

OptimusPrime

Submitted by OptimusPrime at Thu 14 Aug, 2003 4:10 pm

Author: ?
Composer: ?
Publisher: ?
Language: English

Reactions

CommonCrawl [Bot]

Follow Muzikum