The Beatles

The Beatles
Let It Be Bass Part (Bass tab)

Let it Be Bass Tab
Song By: The Beatles
Written By: Lennon/Mcartney
Tabbed By: Bman88275
Album: Beatles 1, and Let it Be

Bass: John Lennon
Lead Guitar: George Harrison
Piano: Paul McArtney
Drums: Ringo Starr
Lead Vocals: Paul McArtney
Organ: Billy Preston

Note: This Tab can be a bit hard to follow at times
and does stray from that of the bass played in the song
now and then. (Its difficult to hear the real one). I did try
my best to stay with the original and this I think is a good tab
still.
Time:4/4
Bass comes in at 1:02
~~~~~= hold note

G--------------------------|------------------------|-----------------------|
D--------------------------|---------5~~~~~~~~0-----2-----0--------------5--7
A-------------------7---5--3~~~~~~5-----------------|-----------3-----5-----|
E--------------------------|------------------------|-----------------------|
^ ^ ^ ^ ^ ^ ^ ^ ^ ^ ^ ^

|-----------------------|
continued-)|~~~~~~7--5--3--2-------|
|-----------------------|
|-----------------------|
^ ^ ^ ^
Chorous (1:18)-1st half
|----5~~~~~~~~~~~~0~~~~~~~~~~~2~~~~~~~~~~~------|-----------------------|
|-----------------------|-----------------2~~~~~~~~~~~2~~~~~~~~~~~0~~~~~|
|-----------------------|-----------------------|-----------------------|
|-----------------------|-----------------------|-----------------------|
^ ^ ^ ^ ^ ^ ^ ^ ^ ^ ^ ^
(1:32)-2nd half
|-----------------------|-----5~~~~~~~~~~~9~~~~~~~~~~~5~~~~~~~~~~~5~~~~~~
~~~~~~7-----5--3--2-----|-----------------------|-----------------------|
|-----------------------|-----------------------|-----------------------|
|-----------------------|-----------------------|-----------------------|
^ ^ ^ ^ ^ ^ ^ ^ ^ ^ ^ ^

~~~~~~9~~~~~~~~~~~7-----|-----------------------|
|-----------------------|-----7-----5-----3-----2
|-----------------------|-----------------------|
|-----------------------|-----------------------|
^ ^ ^ ^ ^ ^ ^
Lead in Downscale (1:46)
|-----------------------|-----------------------|
|-----7-----5--3--2-----0-----------------------|
|-----------------------|-----3-----2-----3-----|
|-----------------------|-----------------------|
^ ^ ^ ^ ^ ^ ^ ^
Organ Downsacale (1:53)
|-----------------5-----|-----5-----7-----5-----|
|-----3-----------------|-----------------------|
|-----------------------|-----------------------|
|-----------------------|-----------------------|
^ ^ ^ ^ ^ ^ ^ ^
Guitar solo (1:58)
|-----5-----------9-----|-----7-----------------5-----------9-----------|
|-----------------------|-----------------------|-----------------------|
|-----------------------|-----------------------|-----------------------|
|-----------------------|-----------------------|-----------------------|
^ ^ ^ ^ ^ ^ ^ ^ ^ ^ ^ ^

12----------7-----------7-----------5-----------|
|-----------------------|-----------------------|
|-----------------------|-----------------------|
|-----------------------|-----------------------|
^ ^ ^ ^ ^ ^ ^ ^

This gets kind of tricky
5-----------------7-----5-----7-----9-----7----12-----5--7--9--3--5-----|
|-----7-----5-----------|-----------------------|-----------------------|
|-----------------------|-----------------------|-----------------------|
|-----------------------|-----------------------|-----------------------|
^ ^ ^ ^ ^ ^ ^ ^ ^ ^ ^ ^

(2:27) 1st half of chorous


(2:41) Cloudy Night...
|-----------------------|-----------------------|-----------------------|
|-----------------2-----|-----0-----------------|-----2-----------5-----|
|-----3-----------------|-----------------3-----|-----------------------|
|-----------------------|-----------------------|-----------------------|
^ ^ ^ ^ ^ ^ ^ ^ ^ ^ ^ ^

|-----------------------|
|-----7-----5--3--2-----|
|-----------------------|
|-----------------------|
^ ^ ^ ^

2:55 wake sound...
|-----------------------|-----------------------|-----------------------|
|-----------------2-----|-----0-----------2-----|-----2-----------5-----|
|-----3-----------------|-----------------------|-----------------------|
|-----------------------|-----------------------|-----------------------|
^ ^ ^ ^ ^ ^ ^ ^ ^ ^ ^ ^

|-----------------------|
|-----7-----5--3--2-----|
|-----------------------|
|-----------------------|
^ ^ ^ ^

FULL CHOROUS


Lets skip the outro im bushed

OptimusPrime

Submitted by OptimusPrime at Thu 14 Aug, 2003 4:10 pm

Author: ?
Composer: ?
Publisher: ?
Language: English

Reactions

CommonCrawl [Bot]

Follow Muzikum