The Beatles

The Beatles
Lean On Me (Bass tab)

My band played this song at our elementry graduation

Intro/Verses
G|----------------------------------------------------------------------------------
D|----------------------------------------------------------------------------------
A|---------0--1--1--0--------------0----------------------0-1--1-0-----------0---
E|--1-1--3------------3--1---1--3-----3-----------1-1--3-----------3-1--1-3----3--1-
Chorus
G|----------------------------------------------------------------------------------
D|----------------------------------------------------------------------------------
A|-0----------------1---1-1-1-1---------3-3--------------1--1-1-1-----------3-------
E|---3--1--1-1-1-1--------------1-1-1-----------1-1-1-1-----------1--1-1-1-----1----

Verse #2
G|----------------------------------------------------------------------------------
D|----------------------------------------------------------------------------------
A|---------0--1--1--0--------------0----------------------0-1--1-0-----------0---
E|--1-1--3------------3--1---1--3-----3-----------1-1--3-----------3-1--1-3----3--1-



Chorus
G|----------------------------------------------------------------------------------
D|----------------------------------------------------------------------------------
A|-0----------------1---1-1-1-1---------3-3--------------1--1-1-1-----------3-------
E|---3--1--1-1-1-1--------------1-1-1-----------1-1-1-1-----------1--1-1-1-----1---- claping solo Chorus
G|----------------------------------------------------------------------------------
D|----------------------------------------------------------------------------------
A|-0----------------1---1-1-1-1---------3-3--------------1--1-1-1-----------3-------
E|---3--1--1-1-1-1--------------1-1-1-----------1-1-1-1-----------1--1-1-1-----1---- Verse #3
G|----------------------------------------------------------------------------------
D|----------------------------------------------------------------------------------
A|---------0--1--1--0--------------0----------------------0-1--1-0-----------0---
E|--1-1--3------------3--1---1--3-----3-----------1-1--3-----------3-1--1-3----3--1-
Chorus
G|----------------------------------------------------------------------------------
D|----------------------------------------------------------------------------------
A|-0----------------1---1-1-1-1---------3-3--------------1--1-1-1-----------3-------
E|---3--1--1-1-1-1--------------1-1-1-----------1-1-1-1-----------1--1-1-1-----1----

OptimusPrime

Submitted by OptimusPrime at Thu 14 Aug, 2003 4:10 pm

Author: ?
Composer: ?
Publisher: ?
Language: English

Reactions

CommonCrawl [Bot]

Follow Muzikum