The Beatles

The Beatles
Lady Madonna Ver 4 (Bass tab)

Tabbed by Bryce Vielguth: TURN TO JESUS IF YOU REALLY WANT TO GO TO HEAVEN. DONT BELIEVE IN HEAVEN? WELL YA"D BETTER BE SAFE THAN SORRY DUDE!


Very hard song...not!
--------------------------------------------------------------------------------
--------------------------------------------------------------------------------
---------0-0-3-4---------0-0-3-4---------0-0-3-4---------0-0-3-4--------0-0-3-4-
-0-0-3-4---------0-0-3-4---------0-0-3-4---------0-0-3-4---------0-0-34---------

then try something new like...
---------------------------------------------------------------------------
---------------------------------------------------------------------------
---------0-0-3-4---------0-0-3-4---------0-0-3-4---------0-0-3-4-----------
-0-0-3-4---------0-0-3-4---------0-0-3-4---------0-0-3-4---------0-0-3-4---

then as a closing lick, do this:
----------------------------------
----------------------------------
--------0-0-3-4-5-4-3-0-----------
0-0-3-4-----------------4-3-0-0---

OptimusPrime

Submitted by OptimusPrime at Thu 14 Aug, 2003 4:10 pm

Author: ?
Composer: ?
Publisher: ?
Language: English

Reactions

CommonCrawl [Bot]

Follow Muzikum