The Beatles

The Beatles
Lady Madonna Ver 3 (Bass tab)

This TAB is great. Paul can really think of great riffs. This is not very hard, but fun.


MAIN RIFF

G|------------------------------2------------|
D|-------------------0-0-2//4---------------|
A|-------0-0-3-4---------------------------|
E|--------------------------------------------|

G|--------------------------2-----------------|
D|---------------0-0-2//4--------------------|
A|------0-3-4--------------------------------|
E|---------------------------------------------|

G|-------------------------------0-0-2-------|
D|---------------0-0-2-2-3-3---------------|
A|------0-3-4--------------------------------|
E|---------------------------------------------|

BRIDGE 1

G|-----------------------------------------------------------------------------------2�2�2------------------|
D|----0-0--------------------------------------------------------------------------------------2----------------|
A|----------3-3--2-2--0-0---------------------------3-3--1-1--0-0-1-1-----0---2---3---------------------|
E|-----------------------------3-3--1-1--0-0--1-1------------------------------------------------------------|

BRIDGE 2

G|------------------------------------------------------------------------------------------------------------|
D|----0-0----------------------------------------------------------------------------------------------------|
A|----------3-3--2-2--0-0-----------------------------3-------------2------------------------------------|
E|-----------------------------3-3--1-1--0-0--1-1-------------------------------0------------------------|

FILL

G |------------------|
D |----20-----------|
A |--------3202----|
E |-------------------|

END FILL

G|----------------|
D|----------------|
A|�3--2--0----|
E|----------------|

ORDER
Main Riff x2
Bridge1
Bridge2
Main Riff x2
Bridge1
Bridge2
Fill
Main Riff x2
Bridge1
Bridge2
Fill
Main Riff
End Fill

OptimusPrime

Submitted by OptimusPrime at Thu 14 Aug, 2003 4:10 pm

Author: ?
Composer: ?
Publisher: ?
Language: English

Reactions

CommonCrawl [Bot]

Follow Muzikum