The Beatles

The Beatles
Lady Madonna (Bass tab)

From: dhall@pcug.org.au (David Hall)

LAdy Madonna
The Beatles




-----------------------0--|-------------------------0--|-------------------
-----
------------------1h2-----|--------------------1h2-----|-------------------
-----
------1--2--3--3----------|--------1--2--3--3----------|--------1--2--3--3-
-----
3--3----------------------|--3--3----------------------|--3--3-------------
-----





---------------0--|--------------------------------|-----------------------
-----
0--0--1--1--3-----|--------------------------------|--1--1--0--0-----------
-----
------------------|--3--3--1--1--0--0--------------|--------------3--3--1--
1----
------------------|--------------------3--3--1--1--|-----------------------
-----





------------------|--------------------------|-----------------------------
-----
------------------|-----5-----7-----8-----9--|-----------------------------
-----
0--0--------------|--------------------------|-----------------------------
-----
------3--3--1--1--|--3-----5-----6-----7-----|--8--8--6--6--5--5--3--3--1--
1----



hold these 2 notes - A# & A

|------------------------------------------||------------------------------
-----
|--1--1--0--0------------------------------||------------------------------
-----
|--------------3--3---1--0--5--5--5--5--5--||------------------------------
-----
|------------------------------------------||------------------------------
-----





===========================================================================
=====
== TABLATURE EXPLANATION
==
===========================================================================
=====

---------- ----------
----5h8--- Hammeron ----(8)--- Ghost Note
---------- ----------
----5p8--- Pulloff ----------

---------- ----------
----5/8--- Slide Up -----x---- Dead Note
---------- ----------
----5\8--- Slide Down ----------

---------- ||------|| Repeat Start & End
----5~~~-- Vibrato ||*----*||
---------- ||*----*||
---------- ||------||

Rhythm:
w = whole note W = dotted whole
h = half note H = dotted half
q = quarter note Q = dotted quarter
e = eighth note E = dotted eighth
s = sixteenth note S = dotted sixteenth
^ = triplet

===========================================================================
=====
== Created with a shareware version of the BUCKET 'O TAB
==
== tablature creation software for Windows
==
== For more information:
==
== email: gse@ocsystems.com
==
== US Mail: The Bucket, 3176-B5 Summit Square Dr., Oakton, VA 22124
==
===========================================================================
=====


David Hall
Canberra ACT, Australia

OptimusPrime

Submitted by OptimusPrime at Thu 14 Aug, 2003 4:10 pm

Author: ?
Composer: ?
Publisher: ?
Language: English

Reactions

CommonCrawl [Bot]

Follow Muzikum