The Beatles

The Beatles
I Want To Hold Your Hand Ver 2 (Bass tab)

The Beatles – I Want to Hold Your Hand
Tabbed by: sinniecoyote

Just follow this bass line and listen to the song for the timing. I think this tab is accurate enough.

G|---------------------------------------------------------------------------|
D|---------------------------------------------------------------------------|
A|--3-7-5-555-3-7-5-555-3-7-5-5555----------5-3-5--5-5---567--7-7------------|
E|-------------------------------------3--3------------7-----------7--7-7-8--|

G|------------------------------------------------------------------|
D|----------------------------------------------5--5-------------5--|
A|---------3-5--5-5---567--7-7---------3----3-5------5--3----3-5----|
E|--3--3-3----------7-----------7---------3----------------3--------|

G|-----------------------------------------------------------------------|
D|-----------------------------9--9-9-10---------------------------------|
A|----------5--5-5---567--7-7----------------------5--5-5---567--7-7-----|
E|--3--3-3---------7-----------------------3--3-3---------7-----------7--|

G|---------------------------------------------------------------------|
D|-----------5--5-------------5------------5--555-5--------------------|
A|--3----3-5------5--3----3-5-----5--555-5----------3--333-3-0--000-0--|
E|-----3----------------3----------------------------------------------|

G|---------------------------------------------------------|
D|-----------5--555-5--------------------------------------|
A|--5--555-5----------3--333-7-5-555-3-7-5-555-3-7-5-5555--|
E|---------------------------------------------------------|

G|---------5------------------------------------------------------------|
D|--5--5----------------------------------------------------------------|
A|-------5---5--5-5---567--7-7--------------------5--5-5---567--7-7-----|
E|------------------7-----------7--7-7-8--3--3-3---------7-----------7--|

G|------------------------------------------------------------------------|
D|----------5--5------------5--5-5------------5--555-5--------------------|
A|--3----5-------5--3----5----------5--555-5-----------3--333-3-0--000-0--|
E|-----3---------------3--------------------------------------------------|

G|---------------------------------------------------------|
D|-----------5--555-5--------------------------------------|
A|--5--555-5----------3--333-7-5-555-3-7-5-555-3-7-5-5555--|
E|---------------------------------------------------------|

G|---------5----------------------------------------------------------|
D|--5--5--------------------------------------------------------------|
A|-------5---5--5-5---567--7-7-------------------5--5-5---567--7-7----|
E|------------------7-----------7--7-7-8-3--3-3---------7----------7--|

G|----------------------------------------------------------|
D|----------5--5-----------------------------------------5--|
A|--3----5-------5--3----5--22222222-3----5--3-7-5-3-7-5----|
E|-----3---------------3----------------3-------------------|

OptimusPrime

Submitted by OptimusPrime at Thu 14 Aug, 2003 4:10 pm

Author: ?
Composer: ?
Publisher: ?
Language: English

Reactions

CommonCrawl [Bot]

Follow Muzikum