The Beatles

The Beatles
I Forgot To Remember To Forget (Guitar tab)

PROPS GO TO: ferox2

I Forgot to Remember to Forget
------------------------------
Here's the Beatles' cover of this Elvis song, as performed on the "Live At The BBC" album. I hope it's OK. Enjoy

Intro: E A E
e-----------------------------------------------------------
B----------9-9------14-14------9�-12-11-10-9----------------
G----------9-9-9----14-14-14---9--13-12-11-9----------------
D------------------------------------------9-----------------
A-----------------------------------------------------------
E--0-1-2----------------------------------------------------

E B7
I forgot to remember to forget her,
E
I can't seem to get her off my mind.
A
I thought I'd never miss her,
E
But I found out somehow
B7 E
I think about her almost all the time. (riff)
A
The day she went away
E
I made myself a promise
B7
That I'd soon forget we ever met.
E E7
But something sure is wrong,
A
'Cause I'm so blue and lonely.
E B7 E
I forgot to remember to forget.

E solo: B B7
e----------|---------------------------------------11--------------------
B--9-8-7-5-|--12-11-10-9--9-10-10/12-12--12-11-10--10-------16--16-15-14-
G--9-8-6-4-|--13-12-11-9--9-11-11/13-13--13-12-11--11-------16--16-15-14-
D----------|-------------------------------------------------------------
A----------|-------------------------------------------------------------
E----------|-------------------------------------------------------------
E A
e------------------------------------------------------------------------
B---/16-15-14-12--12-11-10-9---/12-11-10-9--9-10-11-/12-12--12-12--14----
G-�-/16-15-14-13--13-12-11-9---/13-12-11-9--9-11-12-/13-13--13-13--14----
D------------------------------------------------------------------------
A------------------------------------------------------------------------
E------------------------------------------------------------------------
E B E riff
e-----------------------------------------------|---------4--------------
B--14--14�17--17-16-14-12-----12-11-10-10-9-----|---9-8-7-5--------------
G----14---18--18-16-14-13-13--13-12-11-11-9-----|---9-8-6-4--------------
D-----------------------------------------9-----|------------------------
A-----------------------------------------------|------------------------
E-----------------------------------------------|------------------------

A
The day she went away
E
I made myself a promise
B7
That I'd soon forget we ever met.
E E7
But something sure is wrong,
A
'Cause I'm so blue and lonely.
E B7 E
I forgot to remember to forget

OptimusPrime

Submitted by OptimusPrime at Thu 14 Aug, 2003 4:10 pm

Author: ?
Composer: ?
Publisher: ?
Language: English

Reactions

CommonCrawl [Bot]

Follow Muzikum