The Beatles

The Beatles
I Feel Fine Ver 2 (Bass tab)

Artist: The Beatles
Song : I feel fine
Bass Performance: Paul McCartney
Tabbed by: Maarten Ivens
Date: 20 November 2000
Send comments, suggestions, improvements to baskoning@hotmail.com

Comments: This is an easy one. Most of the times just play the root notes
and fifths of every guitar chord played. Good luck and have fun!

Intro (guitar
riff) Verse 1 G
G----|------|--|--|--|----------------|
D-4:-|------|--|--|--|----------------|
A-4:-|--12--|--|--|--|-------5-----5--|
E----|------|--|--|--|--0/3-----3-----|

(Baby's good to me...)
G---------------|--------------|
D---------------|--------------|
A------5-----5--|------5----5--|
E---3-----3-----|---3-----3----|


D C Verse 2 G (Baby said she's mine)
G---------------|--------------|--------------|--------------|----------
D---------------|--------------|--------------|--------------|----------
A--5------5-----|--5-----3-----|-----5-----5--|-----5-----5--|----------
E-----5------5--|-----5-----3--|--3-----3-----|--3-----3-----|----------


D C G
G---------------|--------------|--------------|--------------|----------
D---------------|--------------|--------------|--5-----5-----|----------
A-----5------5--|--5-----5-----|--5------3----|-----5-----5--|----------
E--3------3-----|-----5-----5--|-----5-----3--|--------------|----------


Middle Bm C D7 G Bm
G---------------|-----------------|--------------------|----------------
D---------------|-----------------|--5--5--------------|----------------
A---5-----2-----|--3----3--5--5---|--------5--2--2-----|----------------
E------5-----2--|-----3--------5--|-----------------2--|----------------


Am D7 Verse 3 G (That her baby...)
G------------------------|--------------|--------------|----------------
D------------------------|--5-----5-----|--5-----5-----|----------------
A---------7--6--5--5-----|-----5-----5--|-----5-----5--|----------------
E---5--5--------------5--|--------------|--------------|----------------


D (She's in..) C G
G---------------------5--7--|--------------|--------------|-------------
D---------------5--7--------|--------------|--5-----5-----|-------------
A---5-----5--5--------------|--5-----3-----|-----5-----5--|-------------
E------5--------------------|-----5-----3--|--------------|-------------

Solo
G D
G---------------|--------------|--------------|-----|-------------------
D---5-----5-----|--5-----5-----|--------------|-----|-------------------
A------5-----5--|-----5-----5--|--5-----5-----|--5--|-------------------
E---------------|--------------|-----5-----5--|-----|-------------------

Then repeat from verse 2 to the end of verse 3 followed by this outro

G------------------||---------------------------------------------------
D------7-----------||---------------------------------------------------
A---5-----3--------||---------------------------------------------------
E------------3--3--||---------------------------------------------------


========================================================================
== TABLATURE EXPLANATION ==
========================================================================

---------- ---------- ----t---
----5h8--- Hammeron ----(8)--- Ghost ----6--- Tap
---------- ---------- Note --------
----5p8--- Pulloff ---------- --------

---------- ---------- -----p--
----5/8--- Slide Up -----x---- Dead -----7-- Pop
---------- ---------- Note --s-----
----5\8--- Slide Down ---------- --5----- Slap

---------- ||------|| Repeat --------
----5~~~-- Vibrato ||*----*|| ---5^--- Bend
---------- ||*----*|| --------
---------- ||------|| --------

---------- ---------- --------
-4:------- Time ---------- --------
-4:------- Signature ---------- --------
---------- ---------- --------

Rhythm:
w = whole note W = dotted whole
h = half note H = dotted half
q = quarter note Q = dotted quarter
e = eighth note E = dotted eighth
s = sixteenth note S = dotted sixteenth
t = 32nd note T = dotted 32nd
x = 64th note X = dotted 64th
^ = triplet

========================================================================
== Created with a demo version of BUCKET O' TAB ==
== tablature creation software for Windows ==
== For more info email gse@his.com ==
========================================================================

OptimusPrime

Submitted by OptimusPrime at Thu 14 Aug, 2003 4:10 pm

Author: ?
Composer: ?
Publisher: ?
Language: English

Reactions

CommonCrawl [Bot]

Follow Muzikum