The Beatles

The Beatles
I Feel Fine (Bass tab)

I'm pretty sure that this is all right, it sounds perfect to me...

Intro/Verse Beginning
E---------------------
A----------5-5---5-5--
D-12/--5-5----5-5----- x4 (only use the 12/ the first time)
G---------------------

Verse Continued
E-------------------------------
A-5-5---5-5---5-5-5---5--3-3---3
D----7-7----7-------7--------5-- (Go back to original verse part)
G-------------------------------

Chorus
E------------2--------3--------5--
A-----5---2-2---2--3-3---3--5-5---5
D-5-5---5-------------------------
G---------------------------------

If you fool around with it for a bit you'll get it,
M1r5ky

If you have any questions email me at TotallyFuct2@hotmail.com

OptimusPrime

Submitted by OptimusPrime at Thu 14 Aug, 2003 4:10 pm

Author: ?
Composer: ?
Publisher: ?
Language: English

Reactions

CommonCrawl [Bot]

Follow Muzikum