The Beatles

The Beatles
Im Down (Bass tab)

I'm Down by Beatles


playethes qhrh, wo eeaeeaqheh pwayethe cedae e e e e e e
G----------r--r--r--r-----r--r--r--r------------------------------------
D---4:--5--e--e--e--e--5--e--e--e--e------------------------------------
A---4:-----s--s--s--s-----s--s--s--s--3--3--3--3--3--3--3--3--3--3------
E----------t--t--t--t-----t--t--t--t------------------------------------


e e e e e e e e e e e e e e e e e e e e e e
G-----------------------------------------------------------------------
D---------------------5--5--5--5--5--5--5--5--5--5--5--5--5--5--5--5----
A---3--3--3--3--3--3----------------------------------------------------
E-----------------------------------------------------------------------


e e e e e e e e Q e h w Q e h w e e q h w e
G---------------------------------r--r--------r--r-----r--r--r--r-------
D------------------------------5--e--e-----5--e--e--5--e--e--e--e--5----
A---3--3--3--3--3--3--3--3--5-----s--s--5-----s--s-----s--s--s--s-------
E---------------------------------t--t--------t--t-----t--t--t--t-------


e q h w e e e e e e e e e e e e e e e e e e
G---r--r--r--r----------------------------------------------------------
D---e--e--e--e--------------------------------------------------5--5----
A---s--s--s--s--3--3--3--3--3--3--3--3--3--3--3--3--3--3--3--3----------
E---t--t--t--t----------------------------------------------------------


e e e e e e e e e e e e e e e e e e e e e e
G-----------------------------------------------------------------------
D---5--5--5--5--5--5--5--5--5--5--5--5--5--5----------------------------
A---------------------------------------------3--3--3--3--3--3--3--3----
E-----------------------------------------------------------------------


Q e h w Q e h w e e h q w e e q h e e e e e
G---------r--r--------r--r-----r--r--r--r-----r--r--r-------------------
D------5--e--e-----5--e--e--5--e--e--e--e--5--e--e--e-----s-------------
A---5-----s--s--5-----s--s-----s--s--s--s-----s--s--s--1--3--3--3--3----
E---------t--t--------t--t-----t--t--t--t-----t--t--t-------------------


e e e e e e e e e e e e e e e e e e e e e e
G---------------------------------------------------------------s-------
D---------------s--------------------5--5--5--5--5--5--5--5--3--5--5----
A---3--3--3--1--3--3--3--3--3--3--3-------------------------------------
E-----------------------------------------------------------------------


e e e e e e s e e e e e e e e e e e e e e e
G------------------5--7--7--7--7--7--7--7--7--7--7--7--7--7--7--7-------
D---5--5--5--5--5--------------------------------------------------5----
A-----------------------------------------------------------------------
E-----------------------------------------------------------------------


e e e e e e e e e e e e e e e e q h w e e q
G------------------------------------------------r--r--r--r-----r--r----
D---5--5--5--5--5--5--5--5--5--5--5--5--5--5--5--e--e--e--e--5--e--e----
A------------------------------------------------s--s--s--s-----s--s----
E------------------------------------------------t--t--t--t-----t--t----


h w e e e e e e e e e e e e e e e e e e e e
G---r--r----------------------------------------------------------------
D---e--e--------------------------------------------------5--5--5--5----
A---s--s--3--3--3--3--3--3--3--3--3--3--3--3--3--3--3--3----------------
E---t--t----------------------------------------------------------------


e e e e e e e e e e e e e e e e e e e e Q e
G-----------------------------------------------------------------------
D---5--5--5--5--5--5--5--5--5--5--5--5-----------------------------5----
A---------------------------------------3--3--3--3--3--3--3--3--5-------
E-----------------------------------------------------------------------


h w Q e h w e e h q w e e q h e e e e e e e
G---r--r--------r--r-----r--r--r--r-----r--r--r-------------------------
D---e--e-----5--e--e--5--e--e--e--e--5--e--e--e-----s-------------------
A---s--s--5-----s--s-----s--s--s--s-----s--s--s--1--3--3--3--3--3--3----
E---t--t--------t--t-----t--t--t--t-----t--t--t-------------------------


e e e e e e e e e e e e e e e e e e e e e e
G---------------------------------------------------------s-------------
D---------s--------------------5--5--5--5--5--5--5--5--3--5--5--5--5----
A---3--1--3--3--3--3--3--3--3-------------------------------------------
E-----------------------------------------------------------------------


e e e e s e e e e e e e e e e e e e e e e e
G------------5--7--7--7--7--7--7--7--7--7--7--7--7--7--7--7-------------
D---5--5--5--------------------------------------------------5--5--5----
A-----------------------------------------------------------------------
E-----------------------------------------------------------------------


e e e e e e e e e e e e e coda w e e e e
G------------------------------------------------------r----------------
D---5--5--5--5--5--5--5--5--5--5--5--5--5--------------e--5--5--5--5----
A------------------------------------------------------s----------------
E------------------------------------------------------t----------------


e e e e e e e e e e e e e e e e e e e e e e
G-----------------------------------------------------------------------
D---5--5--5--5--5--5--5--5--5--5--5--5--5--5--5--5--5--5--5--5--5--5----
A-----------------------------------------------------------------------
E-----------------------------------------------------------------------


e e e e e e e e e e e e e e e e e e e e e e
G-----------------------------------------------------------------------
D---5--5--5--5--5--5--------------------------5--5--5--5--5--5--5--5----
A---------------------3--3--3--3--3--3--3--3----------------------------
E-----------------------------------------------------------------------


e e e e e e e e
G-----------------------------------------------------------------------
D-----------------------------------------------------------------------
A---5--5--5--5--5--5--5--5----------------------------------------------
E-----------------------------------------------------------------------


e e e e e e e e e e e e e e e e e e e e
G---||------------------------------------------------------------------
D---||*--5--5--5--5--5--5--5--5--5--5--5--5--5--5--5--5--5--5--5--5-----
A---||*-----------------------------------------------------------------
E---||------------------------------------------------------------------


e e e e e e e e e e e e e e e e e e e e e e
G-----------------------------------------------------------------------
D---5--5--5--5--5--5--5--5--5--5--5--5----------------------------------
A---------------------------------------3--3--3--3--3--3--3--3--3--3----
E-----------------------------------------------------------------------


e e e e e e e e e e e e e e e e e e e e e e
G-----------------------------------------------------------------------
D---------------------5--5--5--5--5--5--5--5--5--5--5--5--5--5--5--5----
A---3--3--3--3--3--3----------------------------------------------------
E-----------------------------------------------------------------------


e e e e e e e e e e e e e e e e e e e e e e
G-----------------------------------------------------------------------
D---------------------------------------------------5--5--5--5--5--5----
A---5--5--5--5--5--5--5--5--3--3--3--3--3--3--3--3----------------------
E-----------------------------------------------------------------------


e e e e e e e e e e
G----------------------------------||-----------------------------------
D---5--5--5--5--5--5--5--5--5--5--*||-----------------------------------
A---------------------------------*||-----------------------------------
E----------------------------------||-----------------------------------

OptimusPrime

Submitted by OptimusPrime at Thu 14 Aug, 2003 4:10 pm

Author: ?
Composer: ?
Publisher: ?
Language: English

Reactions

CommonCrawl [Bot]

Follow Muzikum