The Beatles

The Beatles
Honey Pie (Bass tab)

The Beatles - Honey Pie Bass Tab

I think I have worked this out OK,
any suggestions, please send them to:
stephenmurphy@hotmail.com or
murphyst@rte.ie



I dont really know the words, but here goes:


This is what I'd say .....

Oh Honey Pie
G------------------------------------------
D----5---------5---------------------------
A---------5---------5----6---------7-------
E-----------------------------6---------7--


G-----------------------------------------
D--7--------------------5-----------------
A-------7--6--5--------------5----7----5--
E------------------7----------------------

G----------------------------------------
D--5---------5---------------------------
A-------5---------5----6---------7-------
E---------------------------6---------7--


G-----------------------------------------
D--7--------------------5-----------------
A-------7--6--5--------------5----4----2--
E------------------7----------------------

'She became a legend of the silver screen' part:

G---------------------------------
D-----------------5--5--7--9--10--
A--3----4----5--------------------
E---------------------------------


G----------------------------------------
D--10--(10)-(10)-(10)--9--(9)--(9)--(9)--
A----------------------------------------
E----------------------------------------


G----------------------------------------
D----7----(7)----------5-----------------
A----------------5--7--------------------
E----------------------------------------




______________________________________________________
Get Your Private, Free Email at http://www.hotmail.com
--====================987654321_0==_
Content-Type: text/plain; name="Honey_Pie_btab.txt"
Content-Disposition: attachment; filename="Honey_Pie_btab.txt"


The Beatles - Honey Pie Bass Tab

I think I have worked this out OK,
any suggestions, please send them to:
stephenmurphy@hotmail.com or
murphyst@rte.ie



I dont really know the words, but here goes:


This is what I'd say .....

Oh Honey Pie
G------------------------------------------
D----5---------5---------------------------
A---------5---------5----6---------7-------
E-----------------------------6---------7--


G-----------------------------------------
D--7--------------------5-----------------
A-------7--6--5--------------5----7----5--
E------------------7----------------------

G----------------------------------------
D--5---------5---------------------------
A-------5---------5----6---------7-------
E---------------------------6---------7--


G-----------------------------------------
D--7--------------------5-----------------
A-------7--6--5--------------5----4----2--
E------------------7----------------------

'She became a legend of the silver screen' part:

G---------------------------------
D-----------------5--5--7--9--10--
A--3----4----5--------------------
E---------------------------------


G----------------------------------------
D--10--(10)-(10)-(10)--9--(9)--(9)--(9)--
A----------------------------------------
E----------------------------------------


G----------------------------------------
D----7----(7)----------5-----------------
A----------------5--7--------------------
E----------------------------------------

OptimusPrime

Submitted by OptimusPrime at Thu 14 Aug, 2003 4:10 pm

Author: ?
Composer: ?
Publisher: ?
Language: English

Reactions

CommonCrawl [Bot]

Follow Muzikum