The Beatles

The Beatles
Help Ver 2 (Bass tab)

Band: Beatles
Song: Help
Tuning; E A D G

Listen the song to get the rhythm

* means dead note

intro:

G-----------------------------------------------|
D-9-9-9-9-9-7---5-5-5-5-5-4---2-2-2-2-2-2-2-2-7-|
A-----------------------------------------------|
E-----------------------------------------------|


first verse:

G------------|------------|------------|------------|
D-7-7--7-7---|------------|-4-4--4-4---|----5-7-7-5-|
A----7----7--|-4-4--4-4---|----4----4--|-5-5-----7--|
E------------|----4----4--|------------|------------|

G------------|------------|------------|-------------|
D-7-7--7-7---|------------|-4-4--4-4---|----5-7-7-7-7|
A----7----7--|-4-4--4-4---|----4----4--|-5-5---------|
E------------|----4----4--|------------|-------------|


chorus

G---------------------------------|---------------------------------|
D---------------------------------|-----------------5-5-------------|
A-2-2-----2-2-----2-2-----2-2-0-0-|-----5-5-----5-5-----5-5-5*5-4*4-|
E-----2-2-----2-2-----2-2---------|-3-3-----3-3---------------------|

G-----------------|-------------------|
D-----------------|-----------------7-|
A---------2-2---2-|---------2-2---2---|
E-0-0-2-4-----2---|-0-0-2-4-----2-----|


fills
G-----------|
D-7---7-7---|
A---7----7--|
E-----------|

second verse

G------------|------------|------------|------------|
D-7-7--7-7---|------------|-4-4--4-4---|----5-7-7-5-|
A----7----7--|-4-4--4-4---|----4----4--|-5-5-----7--|
E------------|----4----4--|------------|------------|

G------------|------------|------------|-------------|
D-7-7--7-7---|------------|-4-4--4-4---|----5-7-7-7-7|
A----7----7--|-4-4--4-4---|----4----4--|-5-5---------|
E------------|----4----4--|------------|-------------|

second chorus

G---------------------------------|---------------------------------|
D---------------------------------|-----------------5-5-------------|
A-2-2---0-2-2---0-2-2---0-2-2-0-0-|-----5-5-----5-5-----5-5-5*5-4*4-|
E-----2-------2-------2-----------|-3-3-----3-3---------------------|

G-----------------|-------------------|
D-----------------|-----------------7-|
A---------2-2---2-|---------2-2---2---|
E-0-0-2-4-----2---|-0-0-2-4-----2-----|


fills

G-----------|
D-7---7-7---|
A---7----7--|
E-----------|

third verse
G------------|------------|------------|------------|
D------------|------------|-4----------|---5-7------|
A-7---7------|-4----------|------------|-5----------|
E---7--------|------------|------------|------------|

G------------|------------|------------|-------------|
D-7-7--7-7---|------------|-4-4--4-4---|----5-7-7-7-7|
A----7----7--|-4-4--4-4---|----4----4--|-5-5---------|
E------------|----4----4--|------------|-------------|

third chorus

G---------------------------------|---------------------------------|
D---------------------------------|-----------------5-5-------------|
A-2-2-----2-2-----2-2-----2-2-0-0-|-----5-5-----5-5-----5-5-5*5-4*4-|
E-----2-2-----2-2-----2-2---------|-3-3-----3-3---------------------|

G-----------------|-------------------|
D-----------------|-----------------7-|
A---------2-2---2-|---------2-2---2---|
E-0-0-2-4-----2---|-0-0-2-4-----2-----|

ending

G---------------|
D-4---4-4---4-7-|
A---4-----4-----|
E---------------|

Tabbed by Luiz Henrique - Spunk bassist

OptimusPrime

Submitted by OptimusPrime at Thu 14 Aug, 2003 4:10 pm

Author: ?
Composer: ?
Publisher: ?
Language: English

Reactions

CommonCrawl [Bot]

Follow Muzikum