The Beatles

The Beatles
Help (Guitar tab)

PROPS GO TO: Max Guitarplayer

* Beatles : Help! (Lennon , McCartney)
-----------------

# # 4 | Bm (intro) | | G | |
# 4 Help! I need somebody Help! Not just anybody

| E | | N.C. (A) | ||
Help! You know I need someone Help!

| A (verse) | | C#m | |
When I was younger so much younger than to- day

| F#m | | D G A | |
I never needed anybody's help in any way

| Bm (chorus) | | | |
Help me if you can I'm feelin' down And I do

| G | | | |
appreciate you being round

| E | | | |
Help me get my feet back on the ground won't you

[ N.C. (A) | |A (verse 1,2)Asus2 | A Asus2 |
please, please, help me?

[ F#m (verse 3) | | A | |
Help me Help me Ooh mm




Verse 2: And now my life has changed in, oh, so many ways
My independence seems to vanish in the haze
But every now and then I feel so insecure
I know I just need you like I've never done before


Bm (intro) G E N.C. (A) |verse
E |----|------|----|------|----|----|------------------|-----------------|
B |----|------|----|------|----|----|-------0-------0--|-------0-------0-|
G |----|------|----|------|----|----|-----0-------0----|-----0-------0---|
D |----|------|----|------|----|----|---5-------4------|---3-------2-----|
A |-2--|-2-0--|----|------|----|----|-7-------6--------|-5-------4-------|
E |----|------|-3--|-3-2--|-0--|----|------------------|-----------------|


Bm (chorus) G E N.C.(A)
E |-----|-----|-----|-----|-----|-----|-----|-----|-----|-----|-----|-----|
B |-----|-----|-----|-----|-----|-----|-----|-----|-----|-----|-----|-----|
G |-----|-----|-----|-----|-----|-----|-----|-----|-----|-----|-----|-----|
D |-----|-----|-----|-----|-----|-----|-----|-----|-----|-----|-----|-----|
A |-----|-----|-----|-2-0-|-----|-----|-----|-----|-----|-----|-----|-----|
E |-2-2-|-2-2-|-2-2-|-----|-3-3-|-3-3-|-3-3-|-3-2-|-0-0-|-0-0-|-0-0-|-0-0-|


Asus2
E |--0--|
B |--0--|
G |--2--|
D |--2--|
A |--0--|
E |-----|


*******************************************************************************

Keep rockin !

Max ( Max_Guitarplayer@hotmail.com )

*******************************************************************************

OptimusPrime

Submitted by OptimusPrime at Thu 14 Aug, 2003 4:10 pm

Author: ?
Composer: ?
Publisher: ?
Language: English

Reactions

CommonCrawl [Bot]

Follow Muzikum