The Beatles

The Beatles
From Me To You (Bass tab)

The Beatles
From Me To You

Intro
G------------------------|
D-----5--7-7------5--7---|
A--3-3------7--3-3-----7-|
E------------------------|

Chorus 1
G------------|-----------|------------|------------|
D----5--7-7--|---5--5-5--|-3-3---7-7--|----5-----7-|
A--3-------7-|-3-------5-|----3-----7-|-3-3---3-3--|
E------------|-----------|------------|------------|
con't
G------------|-----------|------------|------------|
D----5--7-7--|---5--5-5--|-3-3---7-7--|----5-----5-|
A-3-3------7-|-3-------5-|----3-----7-|-3-3---3-3--|
E------------|-----------|------------|------------|

Verse 1
G-----------|---5----5-|-----------|----|
D--5---5--5-|-3---23---|---7-----7-|----|
A----5--3---|----------|-5---45----|-5>-|
E-----------|----------|-----------|----|

Chorus 2
G-----5--------|--------------|--------------|---------------|
D----5---7-7-7-|--------5-5-5-|-3-3-3--7-7-7-|-----------7-7-|
A--3--------7--|-3-3-3-----5--|----3------7--|-3-3---3--3----|
E--------------|----3---------|--------------|----3-3--------|

Bridge
G-----------------|-----------------|--------------|--------------|
D--------5--7-7-7-|-------77--5-5-5-|-3-3-3--7-7-7-|----5-5----55-|
A--7-5-3-------7--|-7-5-3--------5--|----3------7--|-3-3---3-3----|
E-----------------|-----------------|--------------|--------------|

Verse 2
G---------------|----5-----5---|-------------|----|
D--5-5-5--5---5-|-3-3--23-3--2-|----7------7-|----|
A-----5----3-3--|--------------|-5-5--45-5---|-5>-|
E---------------|--------------|-------------|----|

Chorus 3
G----------------|-----5--------|--------------|----------|
D---------7--7-7-|----5---5-5-5-|-3-3-3--7-7-7-|----------|
A--3-3-3---------|-3-3-------5--|----3------7--|-3-3----3-|
E-----3----------|--------------|--------------|----3-3---|

Outro
G------------------------|
D--5---7----76----6--5-7-|
A-----5---7----7---3-----|
E------------------------|

Send comments and stuff to jkendrick@sympatico.ca

OptimusPrime

Submitted by OptimusPrime at Thu 14 Aug, 2003 4:10 pm

Author: ?
Composer: ?
Publisher: ?
Language: English

Reactions

CommonCrawl [Bot]

Follow Muzikum