The Beatles

The Beatles
Fixing A Hole Ver 2 (Bass tab)

Bass Tab Submission -- Beatles -- Fixing a Hole


Fixing a Hole

BY: The Beatles

Like all bass tabs, it's a good idea to listen to the song while playing it
from the tab. So dust off that Sergeant Pepper's Album and prepare to be
amazed by your skills!!!

(By the way, this song has swung 8th notes)
After the organ introduction, play....

1 & 2 & 3 & 4 &
G|-----------------|
D|-3---------------| >>>>|>3---------------|
A|-3---4---5-------|---------3-------|-----------------|---------3-------|
E|-----------------|-----------------|-----------------|-----------------|

1 & 2 & 3 & 4 & 1 & 2 & 3 & 4 & 1 & 2 & 3 & 4 & 1 & 2 & 3 & 4 &
G|-----------------|-----------------|-----------------|-----------------|
D|-3---------3/6---|-3-----3/6-------|-----------3/6---|-----------3/6---|
A|-------3---------|-----3-----------|---3-------------|-------3---------|
E|-----------------|-----------------|-------1---------|-----------------|

1 & 2 & 3 & 4 & 1 & 2 & 3 & 4 & 1 & 2 & 3 & 4 & 1 & 2 & 3 & 4 &
G|-----------------|-----------------|-----------------|-----------------|
D|-----------3/6---|-3---3-----------|-3---3-----------|-3---3-----------|
A|-------3---------|---------3---3---|---------3---3---|---------3---3---|
E|-----------------|-----------4---4-|-----------4---4-|-----------4---4-|
(Here's the bridge)

1 & 2 & 3 & 4 & 1 & 2 & 3 & 4 & 1 & 2 & 3 & 4 & 1 & 2 & 3 & 4 &
G|-----------------|-----------------|-----------------|-----------------|
D|-3---3-----3/6---|-----------3/6---|-----------3/6---|-----------3/6---|
A|---------3-------|-------3---------|-------3---------|-------3---------|
E|-----------------|-----------------|-----------------|-----------------|


1 & 2 & 3 & 4 & 1 & 2 & 3 & 4 & 1 & 2 & 3 & 4 & 1 & 2 & 3 & 4 &
G|-----------------|-----------------|-----------------|-----------------|
D|-----------------|-3---3-------3---|-3---3-------3---|-3---3-------3---|
A|-----------------|---------3-5---5-|---------3-5---5-|---------3-5---5-|
E|-----------------|-----------------|-----------------|-----------------|

1 & 2 & 3 & 4 & 1 & 2 & 3 & 4 & 1 & 2 & 3 & 4 & 1 & 2 & 3 & 4 &
G|-----------------|-----------------|-----------------|-----------------|
D|-3---3---2-------|-----------------|-----------------|-----------------|
A|-------------5---|-3---3-------2---|-3---3-------2---|-3---3-------2---|
E|-----------------|---------3-5---3-|---------3-5---3-|---------3-5---3-|

1 & 2 & 3 & 4 & 1 & 2 & 3 & 4 & 1 & 2 & 3 & 4 & 1 & 2 & 3 & 4 &
G|-----------------|-----------------|-10--------------|-10--------------|
D|-------------2---|-3---------------|---------10------|---------10>>>>>>|
A|-3---4---5-------|---------3-------|-----------------|-----------------|
E|-----------------|-----------------|-----------------|-----------------|

1 & 2 & 3 & 4 & 1 & 2 & 3 & 4 & 1 & 2 & 3 & 4 & 1 & 2 & 3 & 4 &
G|-----------------|-----------------|-----------------|-----------------|
D|>3---------------|-3---------3/6---|-----------3/6---|-----------3/6---|
A|---------3-------|-------3---------|-------3---------|-------3---------|
E|-----------------|-----------------|-----------------|-----------------|

1 & 2 & 3 & 4 & 1 & 2 & 3 & 4 & 1 & 2 & 3 & 4 & 1 & 2 & 3 & 4 &
G|-----------------|-----------------|-----------------|-----------------|
D|-----------3/6---|-3---3-----------|-3---3-----------|-3---3-----------|
A|-------3---------|---------3---3---|---------3---3---|---------3---3---|
E|-----------------|-----------------|-----------------|-----------------|

1 & 2 & 3 & 4 & 1 & 2 & 3 & 4 &
G|-----------------|-----------------|
D|-3---3-----------|-3-------3---6---|
A|---------3---3---|-------3---------|
E|-----------------|-----------------|

1 & 2 & 3 & 4 &
G|-----------------|
D|-----------3/6---|

OptimusPrime

Submitted by OptimusPrime at Thu 14 Aug, 2003 4:10 pm

Author: ?
Composer: ?
Publisher: ?
Language: English

Reactions

CommonCrawl [Bot]

Follow Muzikum