The Beatles

The Beatles
Come Together Ver 9 (Bass tab)

Song: Come Togehter
Artist: Beatles
Tabbed By:Matt The Weasel (Mattzillas_Snow_Removal@hotmail.com)
NOTE: The last tab was correct but...
on bridge 1 & 2, and chorus were wrong

(Intro & Verse)
G|-------------------10------|
D|-----------------------12\-|
A|----------10--h12----------|
E|--10--10-------------------|

(Bridge 1 & 2)
G|--------5----|----|
D|-----------7-|----|
A|--0--0-------|----|
E|-------------|--3-|


(Chorus)
G|----------------------------------------|
D|----------------------------------------|
A|--2--2--2--2--2--2--0--0----------------|
E|--------------------------3--3--3--3--0-|

(Outro)
G|---------------------|----------------|
D|---------------------|----------------|
A|---------------------|----------------|
E|--10--10--10--10--10-|--5--5--5--5--5-|


(Verse Variation 1)
G|-------------------10--10--h12--10--h12--10\-|
D|---------------------------------------------|
A|----------10--h12----------------------------|
E|--10--10-------------------------------------|


(Verse Variation 2)
G|--------------------------------------------------|
D|--------------------------------------------------|
A|----------10--h12-----------10--h12--10--h12--10\-|
E|--10--10------------------------------------------|

OptimusPrime

Submitted by OptimusPrime at Thu 14 Aug, 2003 4:10 pm

Author: ?
Composer: ?
Publisher: ?
Language: English

Reactions

CommonCrawl [Bot]

Follow Muzikum