The Beatles

The Beatles
Come Together Ver 5 (Bass tab)

Bass Tab

Music: Come Together
Artist: Beatles
Album: Abbey Road

[8x]
G|--------------10^-------|
D|------------------12\5--|
A|--------10h12-----------|
E|--10-10-----------------|

[1x]
G|-------------------------|
D|-------------------------|
A|--12--12|12-12|12-12|12--|
E|-------------------------|

[8x]
G|--------------10^-------|
D|------------------12\5--|
A|--------10h12-----------|
E|--10-10-----------------|

[1x]
G|-------------------------|
D|-------------------------|
A|--12--12|12-12|12-12|12--|
E|-------------------------|

[1x]
G|------------------------------------------|
D|------------------------------------------|
A|--14-14-14-14-14-14-12-12-------------12--|
E|--------------------------15-15-15-15-----|

[3x]
G|--------------10^-------|
D|------------------12\5--|
A|--------10h12-----------|
E|--10-10-----------------|

[1x]
G|--------------10^-10h12-10h12-----|
D|------------------------------12--|
A|--------10h12---------------------|
E|--10-10---------------------------|

[4x]
G|--------------10^-------|
D|------------------12\5--|
A|--------10h12-----------|
E|--10-10-----------------|

[1x]
G|-------------------------|
D|-------------------------|
A|--12--12|12-12|12-12|12--|
E|-------------------------|

[1x]
G|------------------------------------------|
D|------------------------------------------|
A|--14-14-14-14-14-14-12-12-------------12--|
E|--------------------------15-15-15-15-----|

[6x]
G|--------------10^-------|
D|------------------12\5--|
A|--------10h12-----------|
E|--10-10-----------------|

[2x]
G|-------------------------|
D|-------------------------|
A|--12--12|12-12|12-12|12--|
E|-------------------------|

[1x]
G|--------------10^-------|
D|------------------12\5--|
A|--------10h12-----------|
E|--10-10-----------------|

[1x]
G|--------------10^-10h12-10h12-10\--|
D|-----------------------------------|
A|--------10h12----------------------|
E|--10-10----------------------------|

[4x]
G|--------------10^-------|
D|------------------12\5--|
A|--------10h12-----------|
E|--10-10-----------------|

[1x]
G|-------------------------|
D|-------------------------|
A|--12--12|12-12|12-12|12--|
E|-------------------------|

[1x]
G|------------------------------------------|
D|------------------------------------------|
A|--14-14-14-14-14-14-12-12-------------12--|
E|--------------------------15-15-15-15-----|

[3x]
G|--------------10^-------|
D|------------------12\5--|
A|--------10h12-----------|
E|--10-10-----------------|

[1x]
G|-------------------------------|
D|-------------------------------|
A|--------10h12-10h12-10h12-10\--|
E|--10-10------------------------|

[20x]
G|-------------------------|
D|-------------------------|
A|--12--12|12-12|12-12|12--|
E|-------------------------|

#######################
## Legend: ##
## ##
## ^ = Bend ##
## \ = Slide Down ##
## h = Hammer-On ##
## | = Sequence Note ##
#######################

#######################################
## Autor: Diego Fernandes ##
## E-mail: l0rd_ph4nt0m@hotmail.com ##
#######################################

Qualquer sugest�o, d�vidas ou corre��es, envie-me um e-mail...

OptimusPrime

Submitted by OptimusPrime at Thu 14 Aug, 2003 4:10 pm

Author: ?
Composer: ?
Publisher: ?
Language: English

Reactions

CommonCrawl [Bot]

Follow Muzikum