The Beatles

The Beatles
Come Together Ver 3 (Bass tab)

Song: Come Together
Artist: Beatles
Tabbed by: Basspimp114
Instrument: Bass



G|---------------10----------------------------------------------------
D|--------7-----------12-------------------------------------------- Repeat Many Times
A|---55-----------------------------------------------------------
E|-------------------------------------------------------------------

G|------------------10- 12-10--12---------------------------------------------
D|------------7-----------------------12----------------------------
A|-----5-5--------------------------------------------------------- Throw this in a lil bit
E|-------------------------------------------------------------------

OptimusPrime

Submitted by OptimusPrime at Thu 14 Aug, 2003 4:10 pm

Author: ?
Composer: ?
Publisher: ?
Language: English

Reactions

CommonCrawl [Bot]

Follow Muzikum