The Beatles

The Beatles
Come Together Ver 2 (Bass tab)

Band:Beatles
Song:"Come Together"
Album:The White Album
G------------8~--
D--------------10
A-------8-10-----
E-6/8-8----------

G--------------------------
D--------------------------
A-2-2-2-2-2-2-0-0----------
E-----------------3-3-3-3-5

realhifi182@bigtrl.com cHrI$+i@n

OptimusPrime

Submitted by OptimusPrime at Thu 14 Aug, 2003 4:10 pm

Author: ?
Composer: ?
Publisher: ?
Language: English

Reactions

CommonCrawl [Bot]

Follow Muzikum