The Beatles

The Beatles
Black Bird (Guitar tab)

Song: Blackbird
Band: Beatles
Tabbed By: Marty The One Man Party





Intro/Verse
e|--------------------------------------------|
B|-0----1---3---12--------12---12--------12---|
G|---0----0---0----0----0----0----0----0----0-|
D|--------------------------------------------|
A|------0---2---10---10--------10---10--------|
E|-3------------------------------------------|

Verse Cont’d
e|------------------------------------------|
B|-5---8---7---10---8-------8---8-------8---|
G|---0---0---0----0---0---0---0---0---0---0-|
D|------------------------------------------|
A|-3---4---5---6----7---7-------6---6-------|
E|------------------------------------------|

Chorus
e|---------------------------------------------|
B|-7---8---5-------5---4-------4---3-------3---|
G|---0---0---0---0---0---0---0---0---0---0---0-|
D|---------------------------------------------|
A|-5---7---3---3-------3---3-------2---2-------|
E|---------------------------------------------|

Chorus Cont’d
e|---------------------------|
B|-2-------2---1-------1---0-|
G|---0---0---0---0---0---0---|
D|-------------0---0---------|
A|-0---0---------------------|
E|-------------------------3-|

After 1st Chorus Only
e|-----------------------------------|
B|-5---3---2-------2---1-------1---0-|
G|---0---0---0---0---0---0---0---0---|
D|---------------------0---0---------|
A|-3---2---0---0-------------------3-|
E|-----------------------------------|

“Blackbird fly…”
e|------------------------------------------|
B|-10---8---6---5---3-------3---5-------5---|
G|----0---0---0---0---0---0---0---0---0---0-|
D|------------------------------------------|
A|-8----7---5---3---1---1-------3---3-------|
E|------------------------------------------|

Cont’d
e|------------------------------------------------------|
B|-10---8---6---5---3-------3---2-------2---1-------1---|
G|----0---0---0---0---0---0---0---0---0---0---0---0---0-|
D|------------------------------------------0---0-------|
A|-8----7---5---3---1---1-------0---0-------------------|
E|------------------------------------------------------|
then right back into verse

Well I think that’s pretty much all you need to know. I’m positive that this is 100% correct.

OptimusPrime

Submitted by OptimusPrime at Thu 14 Aug, 2003 4:10 pm

Author: ?
Composer: ?
Publisher: ?
Language: English

Reactions

CommonCrawl [Bot]

Follow Muzikum