The Beatles

The Beatles
Baby It´s You (Guitar tab)

Beatles - Baby it's you

G Em
Sha la la la la la la la
G Em
Sha la la la la la la la
G Em
Sha la la la la la la la
G Em
Sha la la la la

C G
It's not the way you smile that touched my heart. (sha la la la la)
C G
It's not the way you kiss that tears me apart.

Em
Uh, oh, many, many, many nights go by,
Am G
I sit alone at home and I cry over you.
Em
What can I do.
C D G Em
Can't help myself, 'cause baby, it's you.
G Em
(Sha la la la la la la la)
Baby, it's you.
G Em
(Sha la la la la la la la)
Baby, it's you.

C G
You should hear what they say about you, "cheat," "cheat."
C G
They say, they say you never never never ever been true. (cheat cheat)


Uh oh,
Em
It doesn't matter what they say,
Am
I know I'm gonna love you any old way.
G Em
What can I do, and it's true.
C D G Em
Don't want nobody, nobody, 'cause baby, it's you. (sha la la la la la la)
G Em - following to the solo
Baby, it's you. (sha la la la la la la)

Em C D G
E -------------------------------------------
H -------------------------------------------
G ----------------------5-4-------4----------
D --5--7--5--4--------5-----7-5-7------------
A --------------7----------------------------
E -------------------------------------------

G C D G (twice)
E -------------------------------------------
H -------------------------------------------
G ----------------------5-4-------4-5-4---4--
D --5--7--5--4--------5-----7-5-7-------7----
A --------------7----------------------------
E -------------------------------------------


Uh oh,
Em
It doesn't matter what they say,
Am
I know I'm gonna love you any old way.
G Em
What can I do, and it's true.
C D G Em
Don't want nobody, nobody, 'cause baby, it's you. (sha la la la la la la)
G Em
Baby, it's you. (sha la la la la la la)

Don't leave me all alone

(play G-Em to fade)

by Hovi kaja.hovi@seznam.cz

OptimusPrime

Submitted by OptimusPrime at Thu 14 Aug, 2003 4:10 pm

Author: ?
Composer: ?
Publisher: ?
Language: English

Reactions

CommonCrawl [Bot]

Follow Muzikum