The Beatles

The Beatles
Rocky Raccoon (Bass tab)

Rocky Raccoon - The Beatles
The White Album
tab written by the master basser

this is an extremely easy bass line, but it's a cool song and all that jazz...

|-1--1--1--1--1--1-----7--------5--4--1--1-----7--------5--4--1--1-----7-------|
|-------------------0-----5-----------------0-----5-----------------0-----5----|
|------------------------------------------------------------------------------|
|----------------------------3-----------------------3-----------------------3-|
well somewhere in the black mountain hills...

|-5--4--1--1-----7--------5--4--1--1-----7--------5--4--1--1-----7--------5--4-|
|-------------0-----5-----------------0-----5-----------------0-----5----------|
|------------------------------------------------------------------------------|
|----------------------3-----------------------3-----------------------3-------|

|-1--1-----7--------5--4--1--1-----7--------5--4--1--1-----7--------5--4--1----|
|-------0-----5-----------------0-----5-----------------0-----5--------------1-|
|------------------------------------------------------------------------------|
|----------------3-----------------------3-----------------------3-------------|
speeds up
|-1-----7-----7-----------------5--5--4--4--1-----1-----7-----7--------5-----5-|
|----1-----7-----7--5-----5--------------------1-----1-----7-----7--5-----5----|
|----------------------5-----5-------------------------------------------------|
|------------------------------------------------------------------------------|

|-5--4--1--1-----7--------5--4--1--1-----7--------5--4--1--1-----7--------5--4-|
|-------------0-----5-----------------0-----5-----------------0-----5----------|
|------------------------------------------------------------------------------|
|----------------------3-----------------------3-----------------------3-------|

|-1--1-----7--------5--4--1-----1-----7-----7-----------------5--5--4--4--1----|
|-------0-----5--------------1-----1-----7-----7--5-----5--------------------1-|
|----------------------------------------------------5-----5-------------------|
|----------------3-------------------------------------------------------------|
speeds up
|-1-----7-----7-----------------5--5-|
|----1-----7-----7--5-----5----------|
|----------------------5-----5-------|
|------------------------------------|


and there we have it... email me at yankeefan00@aol.com if you find any inconsistencies or imperfections.
tab written by the master basser

scottish

Submitted by scottish at Mon 11 Aug, 2003 10:23 am

Author: ?
Composer: ?
Publisher: ?
Language: English

Reactions

CommonCrawl [Bot]

Follow Muzikum