The Beatles
A Hard Days Night (Guitar tab)

A hard days night

chords:
G* G C F D Bm Em C7 D7
E|--3---3---0---1---2---2---0---0---x
B|--3---0---1---1---3---3---0---1---3
G|--5---0---0---2---2---4---0---3---5
D|--3---0---2---3---0---4---2---2---4
A|--5---2---3---3---x---2---2---3---5
E|--3---3---x---1---x---2---0---0---x
(simple song)

G*(let ring) G C G F G
its been a hard days night and ive been workin like a dog
G C G F G
its been a hard days night i should be sleepin like a log
C D G
but when i get home to you i find the things that you do make me feel
C G
alright
G C G F G G
you know i work all day to get you money to buy you things and its worth
G C G F G
it just to hear you say your gonna give me everything
C D G
so why on earth should i moan cause when i get you alone you know i feel
C G
O k
Bm Em Bm
When im home every thing seems to be right
G C7 D7
When im home feeling you holding me tight tight yea

Its been a hard days night and ive been workin like a dog

Its been a hard days night i should be sleepin like a log

but when i get home to you i find the things that you do make me feel

alright owww!

Solo:
E|--------------------------------------------
B|--------------------------------------------
G|--------------------------------------------
D|-----------10--12-10-----10-----10----------
A|---10-10-12--12-----12-12--12-12--12-12-13-10
E|---------------------------------------------Repeat again

C D G
so why on earth should i moan cause when i get you alone you know i feel
C G
o k

chorus
verse: just use same rhythm as above


if you have any questions or would like to request a tab email me at:
bob85@att.net

Copyrights
Author: ?
Composer: ?
Publisher: ?
More details
Language: English

Reactions

CommonCrawl [Bot]

Follow Muzikum